Song name
# A B C D E F G H I J K L M N O P Q R S T U V W X Y Z

Bullet For My Valentine - Breaking Out Breaking Down tab

tabbed by edward gonzales
www.youtube.com/edlovesbfmv1
www.myspace.com/edlovesbfmv

im not very good at tabbing out stuff cuz i learn by ear so sorry if this looks 
tuning is drop C

X - rake
= - palm mute
/ - slide
v - vibrato

INTRO
|---------------------------------------------------------------------|
|---------------------------------------------------------------------|
|---------------------------------------------------------------------|
|--X-X-X-X-X-X-11--X-X-X-X-11---9--X-X-X-X--9--7-X-X-X-X-7--6-X-6-----|
|--X-X-X-X-X-X--9--X-X-X-X--9---9--X-X-X-X--9--9-X-X-X-X-9--7-X-7-----|
|---------------------------------------------------------------------|

OR
|------------------------------------------------------------------|
|------------------------------------------------------------------|
|--X-X-X-X-X-X-7-X-X-X-X-7-5-X-X-X-X-5-2-X-X-X-X--2-1-X-1----------|
|--X-X-X-X-X-X-5-X-X-X-X-5-5-X-X-X-X-5-4-X-X-X-X--4-2-X-2----------|
|------------------------------------------------------------------|
|------------------------------------------------------------------|

i think u can figure out the strumming here
|-------------------------|----------------|
|-10----12---9---7--------|----------------|
|--X----X----X---X--------|----------------|
|--7----9----6---4--------|----------------|
|-------------------------|----------------|
|-------------------------|0-2-4-2-4-6-4---|


VERSE
|--------------------------------------------|
|--------------------------------------------|
|--------------------------------------------|
|--------------------------------------------|
|-2-4-4------2-4-4---------------------------|
|-2-4-4------2-4-4---0-2-4-2-4-6-4-----------|


PRE CHORUS G1
|---------------------------------------------------|
|-/10-9-10-12-10-9-10~-/10-9-10-12-10-9-10h-9-10h-7-|
|---------------------------------------------------|
|---------------------------------------------------|
|---------------------------------------------------|
|---------------------------------------------------|

PRE CHORUS G2
|---------------------------------|
|--14-12-14-15-14-12-14~----------|
|---------------------------------|
|---------------------------------|
|---------------------------------|
|---------------------------------|

CHORUS                                  strumming here again
|--------------------------------------------|------------------|
|--------------------------------------------|--7---9--10--12---|
|--------------------------------------------|--X---X---X---X---|
|------------------------------------7---6---|--4---6---7---9---|
|--4-4-4-4-4-4-4-4-4-4-4-4-4-4-4-4-4---------|------------------|
|--4-4-4-4-4-4-4-4-4-4-4-4-4-4-4-4-4---4-----|------------------|
     = = = =     = = = =     = = = =   =

LITTLE INTERLUDE/BREAKDOWN
   G1
|--------------------------|
|--------------------------|
|--------------------------|
|-6v--4v--6v--4v--6v-7-4v--|
|--------------------------|
|--------------------------|

   G2
|--------------------------|
|--------------------------|
|--------------------------|
|-9v--7v--9v--7v--9v-11-7v-|
|--------------------------|
|--------------------------|


|------------------------------------------------------|
|------------------------------------------------------|
|------------------------------------------------------|
|------------------------------------------------------|
|--0--0--0--0--0--0---0-0-0--2-2-2-2-2-2-2-2-----------|
|--0--0--0--0--0--0---0-0-0--2-2-2-2-2-2-2-2-----------|
   =  =  =  =  =  =   = = =    = = = = = = =

PRE CHORUS 2
|--------------------------------------------------------|
|--------------------------------------------------------|
|--------------------------------------------------------|
|--------------------------------------------------------|
|--4--4-4-4--4--4-4-4--4--4-4-4--------------------------|
|--4--4-4-4--4--4-4-4--4--4-4-4---0-2-4-2-4-6-4----------|
      = = =     = = =     = = =
 AND THATS ALL THE GUITAR PARTS, I THINK U CAN PUT THEM TOGETHER
Tap to rate this tab
# A B C D E F G H I J K L M N O P Q R S T U V W X Y Z