Song name
# A B C D E F G H I J K L M N O P Q R S T U V W X Y Z

Bullet For My Valentine - A Place Where You Belong tab

         ---Here's the first non-guitar-pro tab so learn and enjoy---


   Band: Bullet for my Valentine
   Album: Fever
   Song: A place Where You Belong
   Tuning: CGCFAD

  ***I only tabbed guitar 1***

   Intro part1 (Clean)***One time all the way through; play each twice***
   |--------0--------0-------0---|  |-------0---------0-------0--------|
   |-----4---4-4-------4-------4-|  |----4----4-4-------4-------4------|
   |----4-4---4----4-------4-----|x2|---4-4----4----4-------4----------|x2
   |-----------------------------|  |----------------------------------|
   |--4----------4-------2-------|  |-0-----------0--------2-----------|
   |-----------------------------|  |----------------------------------|

   Intro part2 (Distorted)x2
   |-------------------------------------------------------------------|
   |------------5/4---------5/4-----5/4------------5/4----------5/4----|
   |----------------4\6--------------------------------4\6-------------|
   |----------------------6-------6---------------------------6--------|
   |--4-2-2-4-2---------4-------4--------4-2-2-4-2----------4----------|
   |-------------------------------------------------------------------|
      . . . . .         . .     . .      . . . . .          . .
   |--------------------------------------------------------------------|
   |-----5/4------------------------------------------------------------|
   |----------8-8-8-9-9-9-8-8-8-9-9-9-9-9-9-11-11-13--13--13--13--13--13|
   |---6------x-x-x-x-x-x-x-x-x-x-x-x-x-x-x-x--x--x---x---x---x---x---x-|
   |-4--------6-6-6-7-7-7-6-6-6-7-7-7-7-7-7-9--9--11--11--11--11--11--11|
   |--------------------------------------------------------------------|
     . .
   |---------------------------------|
   |---------------------------------|
   |-13--13--11-11-11-11-11-11-11-11-|
   |-x---x---x--x--x--x--x--x--x--x--|
   |-11--11--9--9--9--9--9--9--9--9--|
   |---------------------------------|

   Verse part1 (Clean)x5
   |-----------------------------------|
   |-------4\5-----------4\5-----------|
   |-----4-------------4---------------|
   |---6-------7-----6-------7---(7)\9-|
   |-4---------7~--4---------7~--(7)\9-|
   |-----------7-------------7---(7)\9-|
     . . .         . . .
   Verse part2 (Clean)x4 ***Let ring throughout***
   |-play three times|--on fourth time-|
   |---------4\5-----|-----5/4-----5/4-|
   |-----4-------4\6-|-----------------| thee entire verse
   |---6---4---------|---6-------6-----|(just listen if confused)
   |-4---------------|-4-------4-------|
   |-----------------|-----------------|

   Bridge (Clean)x2
   |---------------|
   |-------4\5-----|
   |-----4-----4\6-|
   |---6-----------|
   |-4-------------|
   |---------------|

   Outro 1 (Distorted) x1
   |------------------------------------------------------------------|
   |---------------------8b--9-------12---------------7----7b-12------|
   |---------4-6-9-8-6~-(6)----9-8-9----9-8-9-8---6-9---9-(9)----11-9-|
   |-------6------------------------------------9---------------------|
   |-11/-4------------------------------------------------------------|
   |------------------------------------------------------------------|
         . . .
   |----------------------T----------------T--------------------------|
   |---14~-(14)h17p14h17-19-17p14-12p9h12-14-12p9---------------------|
   |-------------------------------------------------------T----------|
   |-11-------------------------------------------14p9h14-16-14p9h14p9|
   |------------------------------------------------------------------|
   |------------------------------------------------------------------|

   |------------------------------------|
   |------------------------------------|
   |---------------T--------------------|
   |-h14p9-13p9h13-14-13p9h13p9h13p9-11~|
   |------------------------------------|
   |------------------------------------|

   Solo (Distorted)
   |---11-9-11-12-11b-9-11~-11b-911-11b-9-7------12-11b-9-16~-11b-9-11|
   |-9---9-9--------------------------------7b-5----------------------|
   |------------------------------------------------------------------|
   |------------------------------------------------------------------|
   |------------------------------------------------------------------|
   |------------------------------------------------------------------|

   |-11b-9-7-12--------------------------------------------------------|
   |------------12-10-9~--12-10-9-7~-----------------------------------|
   |--------------------------------------------------11-9-11-13-11-13-|
   |---------------------------------11-9-11-14-11-14------------------|
   |-------------------------------------------------------------------|
   |-------------------------------------------------------------------|
                                     .  .  . .  .  .  .  .  .  .  .  .
   |-------------------------------|-PHT----FHT----FHT---|
   |----------14-12-14-17-16-12-14~|--19-12-17--12-14-12-|
   |-16-13-16----------------------|---------------------|x5
   |-------------------------------|---------------------|
   |-------------------------------|---------------------|
   |-------------------------------|---------------------|
     .  .  .
   |-PHT----FHT----FHT-|   |-22~-|
   |-22--14-19--14-17--|   |-----|
   |-------------------|x6 |-----|
   |-------------------|   |-----|
   |-------------------|   |-----|
   |-------------------|   |-----|

   Outro 2 part 1 (Distorted)x3
   |--------------------------------------------------------|
   |-------------------------------4\5-------------4\5------|
   |--------------------------4--------6/4-----4------6/4---| 
   |-7--7--7-7--9--9--9-9---6----------------6--------------|
   |-7--7--7-7--9--9--9-9--4---------------4----------------|
   |-7--7--7-7--9--9--9-9-----------------------------------|
   Outro 2 part 2 (Distorted)x1            . . .
   |--------------------------------------------------|
   |--------------------------------------------------|
   |--------------------------------------------------|
   |-7--7--7-7--7-7--7-7-7-7--4--4--4-4--4-4--4-4-4-4-|
   |-7--7--7-7--7-7--7-7-7-7--2--2--2-2--2-2--2-2-2-2-|
   |-7--7--7-7--7-7--7-7-7-7--2--2--2-2--2-2--2-2-2-2-|

   End Riff (Distorted)x1
   |---------------|
   |---------------|
   |---------------|
   |-11x-11x-9-11/-|
   |-11x-11x-9-11/-|
   |-11x-11x-9-11/-|


   Song Order or Road Map:
   -Intro part 1 (x1)
   -Intro part 2 (x2)
   -Verse part 1 (x5)
   -Verse part 2 (x4)
   -Bridge (x2)
   -Outro 1 (x1)
   -Verse part 1 (x5)
   -Verse part 2 (x4)
   -Bridge (x2)
   -Intro part 2 (x2)
   -Solo (x1)
   -Verse 1 (x1)
   -Outro 2 part 1 (x3)
   -Outro 2 part 2 (x1)
   -Intro part 2 (x2)
   -End Riff (x1)

    Key or Legend:

   - . = palm mute
   - / = slide down
   - \ = slide up
   - b = bend
   - h = hammer on
   - p = pull off
   - FHT = fret hand tap
   - PHT = pick hand tap
   - ~ = let ring
   - x = dead string
   - T = tap string

          ---That's it! Hope you enjoy it and hope it's 100% perfect---
Tap to rate this tab
# A B C D E F G H I J K L M N O P Q R S T U V W X Y Z