Song name
# A B C D E F G H I J K L M N O P Q R S T U V W X Y Z

Bullet For My Valentine - Bittersweet Memories tab

Bittersweet Memories
Bullet For My Valentine
Fever
Drop C- CGCFAD


-Intro-
Matt
D|------------------------------------------------------------------------------------|
A|------------------------------------------------------------------------------------|
F|-12h14-12-10-12~~~~~~-12h14-12-10-9~~~~~~-12h14-12-14b=====r-12h14-12-10-9~~~~/14~~-|
C|------------------------------------------------------------------------------------|
G|------------------------------------------------------------------------------------|
C|------------------------------------------------------------------------------------|
Padge
D|------------------------------------------------------------------------------------|
A|------------------------------------------------------------------------------------|
F|-9h10---9--7--9~~~~~~-9h10--9--7--5~~~~~~-9h10---9-10b=====r-9h10--9--7--5~~~~/10~~-|
C|------------------------------------------------------------------------------------|
G|------------------------------------------------------------------------------------|
C|------------------------------------------------------------------------------------|
Gtr 3
D|---------------------------------------------------------------------------------|
A|---------------------------------------------------------------------------------|
F|-----------------------------------------3-3-3-3-3-3-3-3-3-3-5-5-5-5-5-5-5-5-5-5-|
C|-3-3-3-3-3-3-3-3-3-3-0-0-0-0-0-0-0-0-0-0-3-3-3-3-3-3-3-3-3-3-5-5-5-5-5-5-5-5-5-5-|
G|-3-3-3-3-3-3-3-3-3-3-0-0-0-0-0-0-0-0-0-0-1-1-1-1-1-1-1-1-1-1-3-3-3-3-3-3-3-3-3-3-|
C|-3-3-3-3-3-3-3-3-3-3-0-0-0-0-0-0-0-0-0-0-----------------------------------------|

Matt
D|------------------------------------------------------------------------------------|
A|------------------------------------------------------------------------------------|
F|-12h14-12-10-12~~~~~~-12h14-12-10-9~~~~~~-12h14-12-14b=====r-12h14-12-10-9~~~~\7-7~-|
C|------------------------------------------------------------------------------------|
G|------------------------------------------------------------------------------------|
C|------------------------------------------------------------------------------------|
Padge
D|------------------------------------------------------------------------------------|
A|------------------------------------------------------------------------------------|
F|-9h10---9--7--9~~~~~~-9h10--9--7--5~~~~~~-9h10---9-10b=====r-9h10--9--7--5~~~~/7-7~-|
C|------------------------------------------------------------------------------------|
G|------------------------------------------------------------------------------------|
C|------------------------------------------------------------------------------------|
Gtr 3
D|---------------------------------------------------------------------------------|
A|---------------------------------------------------------------------------------|
F|-----------------------------------------3-3-3-3-3-3-3-3-3-3-5-5-5-5-5-5-5-5-5-5-|
C|-3-3-3-3-3-3-3-3-3-3-0-0-0-0-0-0-0-0-0-0-3-3-3-3-3-3-3-3-3-3-5-5-5-5-5-5-5-5-5-5-|
G|-3-3-3-3-3-3-3-3-3-3-0-0-0-0-0-0-0-0-0-0-1-1-1-1-1-1-1-1-1-1-3-3-3-3-3-3-3-3-3-3-|
C|-3-3-3-3-3-3-3-3-3-3-0-0-0-0-0-0-0-0-0-0-----------------------------------------|

D|----------------------------------|
A|----------------------------------|
F|----------------------------------|
C|-0~~~~~~~~~~~~~~~~~~~~~~~~~~~~~~~~|
G|-0~~~~~~~~~~~~~~~~~~~~~~~~~~~~~~~~|
C|-0~~~~~~~~~~~~~~~~~~~~~~~~~~~~~~~~|

Padge
D|---------0------------------------------0------------------|
A|-----6-----6------------------------6-----6----------------|
F|---5---5-----5--------------------5---5-----5--------------|
C|-----------------------------------------------------------|
G|-----------------------------------------------------------|
C|-3-------------3~-3-3-3~-3~-----3-------------3~-3-3-3~-3~-|


-Verse-
D||----------0--------------------------------------0---------------------------------|
A||o-----6-----6--------------------------------6-----6-------------------------------|
F||----5---5-----5----------------------------5---5-----5-----------------------------|
C||-----------------------------------------------------------------------------------|
G||o----------------------------------------------------------------------------------|
C||--3-------------3~~--3-3--3~~--3~~-------3-------------3~~--3-3--3~~--3~~----------|
-"You turn me off at the push of a button, and you pretend that I don't mean nothin'
-You like to scream use words as a weapon, well go ahead, take your best shot woman
(you like to scream use words as a weapon, well go ahead, take your best shot woman)

D|---------0--------------------------------------0----------------------0---------||
A|-----6-----6--------------------------------6-----6----------------------6------o||
F|---5---5-----5----------------------------5---5-----5----------------------5-----||
C|---------------------------------------------------------------------------------||
G|-3-------------3~~--3-3--3~~--3~~-------0-------------0~~--0-0--0~~--0----------o||
C|---------------------------------------------------------------------------------||
...I'm not a saint, that's easy to tell, but guess what honey, you ain't no angel
...I wanna leave you, it's easy to see, but guess what honey, it's not that easy"


-Pre Chorus-
Matt & Padge
D|-----------------------------------------------------------------|
A|-----------------------------------------------------------------|
F|-10~-10-10-10~-10~-10-10-10~-10~-10br-9-7---------------777777---|
C|--x---x--x--x---x---x--x--x---x---x---x-x-------0~~~~~~-xxxxxx-0-|
G|--8~--8--8--8~--8~--8--8--8~--8~--8---7-5-0-0-0-0~~~~~~-555555-0-|
C|------------------------------------------0-0-0-0~~~~~~--------0-|
                                            - - -
"Wee get so complicateeeed! (COMPLICATEEEED!!!)

D|---------------------------------------------------------------|
A|---------------------------------------------------------------|
F|-10~-10-10-10~-10~-10-10-10~-10~-10br-9-7-7~-7br~-7-9-9-9-9-10-|
C|--x---x--x--x---x---x--x--x---x---x---x-x-x--x----x-x-x-x-x-x--|
G|--8~--8--8--8~--8~--8--8--8~--8~--8---7-5-5~-5br~-5-7-7-7-7-8--|
C|---------------------------------------------------------------|
...This finger's for ouuurr memooorrrieeess"


-Chorus-
Matt & Padge
D||------------------------------------------------------------------|
A||o-----------------------------------------------------------------|
F||------------------------------------------------------------------|
C||--3-3-3-3-3-3-3-3-3-3-3-3-3-3-3-3-3-3-3-3-3-3-3-3-3-3-3-3-3-3-3-3-|
G||o-3-3-3-3-3-3-3-3-3-3-3-3-3-3-3-3-3-3-3-3-3-3-3-3-3-3-3-3-3-3-3-3-|
C||--3-3-3-3-3-3-3-3-3-3-3-3-3-3-3-3-3-3-3-3-3-3-3-3-3-3-3-3-3-3-3-3-|
-"So rip my pictures from your wall, tear them down and burn them all
(SO RIIIIIIIIIIIIIIP!!!)
-Take the ashes from the floor, bury them to just make sure

D|------------------------------------------------------------------||
A|-----------------------------------------------------------------o||
F|---------------------------------3-3-3-3-3-3-3-3-3-3-3-3-3-3-3-3--||
C|-0-0-0-0-0-0-0-0-0-0-0-0-0-0-0-0-3-3-3-3-3-3-3-3-3-3-3-3-3-3-3-3--||
G|-0-0-0-0-0-0-0-0-0-0-0-0-0-0-0-0-1-1-1-1-1-1-1-1-1-1-1-1-1-1-1-1-o||
C|-0-0-0-0-0-0-0-0-0-0-0-0-0-0-0-0----------------------------------||
...Light the fire and walk away, there's nothing left to say, soo
...That nothing more is left of me, just Bittersweet Memoooories"
                                        (Bittersweet Memoooories)
Matt
D|----------------------------------|
A|----------------------------------|
F|----------------------------------|
C|-0~~~~~~~~~~~~~~~~~~~~~~~~~~~~~~~~|
G|-0~~~~~~~~~~~~~~~~~~~~~~~~~~~~~~~~|
C|-0~~~~~~~~~~~~~~~~~~~~~~~~~~~~~~~~|
Padge
D|---------0------------------------------0------------------|
A|-----6-----6------------------------6-----6----------------|
F|---5---5-----5--------------------5---5-----5--------------|
C|-----------------------------------------------------------|
G|-----------------------------------------------------------|
C|-3-------------3~-3-3-3~-3~-----3-------------3~-3-3-3~-3~-|
...Memoorriiiesss (Iiiiii)


-Verse-
D||----------0--------------------------------------0---------------------------------|
A||o-----6-----6--------------------------------6-----6-------------------------------|
F||----5---5-----5----------------------------5---5-----5-----------------------------|
C||-----------------------------------------------------------------------------------|
G||o----------------------------------------------------------------------------------|
C||--3-------------3~~--3-3--3~~--3~~-------3-------------3~~--3-3--3~~--3~~----------|
-"I wanna run and escape from your prison, but when I leave I feel something is missin'
 (I wanna run and escape from your prison, but when I leave I feel something is missin')
-You're like a drug that I can't stop takin', I want more and I can't stop cravin'
                                             (I want more and I can't stop cravin')

D|---------0--------------------------------------0----------------------0---------||
A|-----6-----6--------------------------------6-----6----------------------6------o||
F|---5---5-----5----------------------------5---5-----5----------------------5-----||
C|---------------------------------------------------------------------------------||
G|-3-------------3~~--3-3--3~~--3~~-------0-------------0~~--0-0--0~~--0----------o||
C|---------------------------------------------------------------------------------||
...I'm not afraid, that's easy to tell, this can't be heaven, it feels like I'm in hell
                                                             (it feels like I'm in hell)
...I still want you, it's easy to see, but guess what honey, you're not that good for me"


-Pre Chorus-
Matt & Padge
D|-----------------------------------------------------------------|
A|-----------------------------------------------------------------|
F|-10~-10-10-10~-10~-10-10-10~-10~-10br-9-7---------------777777---|
C|--x---x--x--x---x---x--x--x---x---x---x-x-------0~~~~~~-xxxxxx-0-|
G|--8~--8--8--8~--8~--8--8--8~--8~--8---7-5-0-0-0-0~~~~~~-555555-0-|
C|------------------------------------------0-0-0-0~~~~~~--------0-|
                                            - - -
"Wee get so complicateeeed! (COMPLICATEEEED!!!)

D|---------------------------------------------------------------|
A|---------------------------------------------------------------|
F|-10~-10-10-10~-10~-10-10-10~-10~-10br-9-7-7~-7br~-7-9-9-9-9-10-|
C|--x---x--x--x---x---x--x--x---x---x---x-x-x--x----x-x-x-x-x-x--|
G|--8~--8--8--8~--8~--8--8--8~--8~--8---7-5-5~-5br~-5-7-7-7-7-8--|
C|---------------------------------------------------------------|
...This finger's for ouuurr memooorrrieeess"


-Chorus-
Matt & Padge
D||------------------------------------------------------------------|
A||o-----------------------------------------------------------------|
F||------------------------------------------------------------------|
C||--3-3-3-3-3-3-3-3-3-3-3-3-3-3-3-3-3-3-3-3-3-3-3-3-3-3-3-3-3-3-3-3-|
G||o-3-3-3-3-3-3-3-3-3-3-3-3-3-3-3-3-3-3-3-3-3-3-3-3-3-3-3-3-3-3-3-3-|
C||--3-3-3-3-3-3-3-3-3-3-3-3-3-3-3-3-3-3-3-3-3-3-3-3-3-3-3-3-3-3-3-3-|
-"So rip my pictures from your wall, tear them down and burn them all
(SO RIIIIIIIIIIIIIIP!!!)
-Take the ashes from the floor, bury them to just make sure

D|------------------------------------------------------------------||
A|-----------------------------------------------------------------o||
F|---------------------------------3-3-3-3-3-3-3-3-3-3-3-3-3-3-3-3--||
C|-0-0-0-0-0-0-0-0-0-0-0-0-0-0-0-0-3-3-3-3-3-3-3-3-3-3-3-3-3-3-3-3--||
G|-0-0-0-0-0-0-0-0-0-0-0-0-0-0-0-0-1-1-1-1-1-1-1-1-1-1-1-1-1-1-1-1-o||
C|-0-0-0-0-0-0-0-0-0-0-0-0-0-0-0-0----------------------------------||
...Light the fire and walk away, there's nothing left to say, soo
...That nothing more is left of me, just Bittersweet Memoooories"
                                        (Bittersweet Memoooories)


-Breakdown-
Matt
D|-----------------------------------------------------------------|
A|-----------------------------------------------------------------|
F|---------------------------------3-3-3-3-3-3-3-3-3-3-3-3-3-3-3-3-|
C|-0-0-0-0-0-0-0-0-0-0-0-0-0-0-0-0-3-3-3-3-3-3-3-3-3-3-3-3-3-3-3-3-|
G|-0-0-0-0-0-0-0-0-0-0-0-0-0-0-0-0-1-1-1-1-1-1-1-1-1-1-1-1-1-1-1-1-|
C|-0-0-0-0-0-0-0-0-0-0-0-0-0-0-0-0---------------------------------|
Padge
D|--------------------------------------------------------------------------|
A|-5-5-5-6-6-6-5-5-5-6-6-6-3-3-3-3-10-10-10-11-11-11-8-8-8-10-10-10-6-6-6-6-|
F|-7-7-7-------7-7-7-------5-5-5-5------------------------------------------|
C|--------------------------------------------------------------------------|
G|--------------------------------------------------------------------------|
C|--------------------------------------------------------------------------|

Matt
D|-----------------------------------------------------------------|
A|-----------------------------------------------------------------|
F|---------------------------------5-5-5-5-5-5-5-5-5-5-5-5-5-5-5-5-|
C|-3-3-3-3-3-3-3-3-3-3-3-3-3-3-3-3-5-5-5-5-5-5-5-5-5-5-5-5-5-5-5-5-|
G|-3-3-3-3-3-3-3-3-3-3-3-3-3-3-3-3-3-3-3-3-3-3-3-3-3-3-3-3-3-3-3-3-|
C|-3-3-3-3-3-3-3-3-3-3-3-3-3-3-3-3---------------------------------|
Padge
D|-----------------------------------------------------------------|
A|-5-5-5-6-6-6-5-5-5-6-6-6-3-3-3-3-10--11--10--8--10--8--6--8--6b=-|
F|-7-7-7-------7-7-7-------5-5-5-5---------------------------------|
C|-----------------------------------------------------------------|
G|-----------------------------------------------------------------|
C|-----------------------------------------------------------------|
...Just Bittersweet Memoorrriiess

Matt
D|-----------------------------------------------------------------|
A|-----------------------------------------------------------------|
F|---------------------------------3-3-3-3-3-3-3-3-3-3-3-3-3-3-3-3-|
C|-0-0-0-0-0-0-0-0-0-0-0-0-0-0-0-0-3-3-3-3-3-3-3-3-3-3-3-3-3-3-3-3-|
G|-0-0-0-0-0-0-0-0-0-0-0-0-0-0-0-0-1-1-1-1-1-1-1-1-1-1-1-1-1-1-1-1-|
C|-0-0-0-0-0-0-0-0-0-0-0-0-0-0-0-0---------------------------------|
Padge
D|--------------------------------------------------------------------------|
A|-5-5-5-6-6-6-5-5-5-6-6-6-3-3-3-3-10-10-10-11-11-11-8-8-8-10-10-10-6-6-6-6-|
F|-7-7-7-------7-7-7-------5-5-5-5------------------------------------------|
C|--------------------------------------------------------------------------|
G|--------------------------------------------------------------------------|
C|--------------------------------------------------------------------------|

Matt
D|-----------------------------------------------------------------|
A|-----------------------------------------------------------------|
F|---------------------------------5-5-5-5-5-5-5-5-5-5-5-5-5-5-5-5-|
C|-3-3-3-3-3-3-3-3-3-3-3-3-3-3-3-3-5-5-5-5-5-5-5-5-5-5-5-5-5-5-5-5-|
G|-3-3-3-3-3-3-3-3-3-3-3-3-3-3-3-3-3-3-3-3-3-3-3-3-3-3-3-3-3-3-3-3-|
C|-3-3-3-3-3-3-3-3-3-3-3-3-3-3-3-3---------------------------------|
Padge
D|-----------------------------------------------------------------|
A|-5-5-5-6-6-6-5-5-5-6-6-6-3-3-3-3-10-11-10-8-10-8-6-8-6-5-6-8-6~~-|
F|-7-7-7-------7-7-7-------5-5-5-5---------------------------------|
C|-----------------------------------------------------------------|
G|-----------------------------------------------------------------|
C|-----------------------------------------------------------------|


Matt & Padge
D|-----------------------------------------------------------------|
A|-----------------------------------------------------------------|
F|-10~-10-10-10~-10~-10-10-10~-10~-10br-9-7---------------777777---|
C|--x---x--x--x---x---x--x--x---x---x---x-x-------0~~~~~~-xxxxxx-0-|
G|--8~--8--8--8~--8~--8--8--8~--8~--8---7-5-0-0-0-0~~~~~~-555555-0-|
C|------------------------------------------0-0-0-0~~~~~~--------0-|
                                            - - -
"Wee get so complicateeeed! (COMPLICATEEEED!!!)

D|---------------------------------------------------------------|
A|---------------------------------------------------------------|
F|-10~-10-10-10~-10~-10-10-10~-10~-10br-9-7-7~-7br~-7-9-9-9-9-10-|
C|--x---x--x--x---x---x--x--x---x---x---x-x-x--x----x-x-x-x-x-x--|
G|--8~--8--8--8~--8~--8--8--8~--8~--8---7-5-5~-5br~-5-7-7-7-7-8--|
C|---------------------------------------------------------------|
...This finger's for ouuurr memooorrri-

Essss"


Matt
D|--------------------------------------------------------------------------|
A|--------------------------------------------------------------------------|
F|--------------------------------------------------------------------------|
C|-3~~~~~~~~~~~~~~~~~~~~~~~~~~~~~~-3~~~~~~~~~~~~~~~~~~~~~~~~~~~~~~~~~~~~~~~~|
G|-3~~~~~~~~~~~~~~~~~~~~~~~~~~~~~~-3~~~~~~~~~~~~~~~~~~~~~~~~~~~~~~~~~~~~~~~~|
C|-3~~~~~~~~~~~~~~~~~~~~~~~~~~~~~~-3~~~~~~~~~~~~~~~~~~~~~~~~~~~~~~~~~~~~~~~~|
Padge
D|--------------------------------------------------------------------------|
A|-5-5-5-6-6-6-5-5-5-6-6-6-3-3-3-3-10-10-10-11-11-11-8-8-8-10-10-10-6-6-6-6-|
F|-7-7-7-------7-7-7-------5-5-5-5------------------------------------------|
C|--------------------------------------------------------------------------|
G|--------------------------------------------------------------------------|
C|--------------------------------------------------------------------------|
                                                            ...We get soo
Matt
D|---------------------------------------------------------------|
A|---------------------------------------------------------------|
F|---------------------------------------------------------------|
C|-------------------------------------------------------------3-|
G|-3--3--3--3--3--3--3--3--3--3--3--3--3--3--3---3----3----3---3-|
C|-3--3--3--3--3--3--3--3--3--3--3--3--3--3--3---3----3----3---3-|
   -  -  -  -  -  -  -  -  -  -  -  -  -  -  -   -    -    -
Padge
D|---------------------------------------------------------------|
A|-5-5-5-6-6-6-5-5-5-6-6-6-3-3-3-3-10--11--10--8--10--8--6--8--6-|
F|-7-7-7-------7-7-7-------5-5-5-5-------------------------------|
C|---------------------------------------------------------------|
G|---------------------------------------------------------------|
C|---------------------------------------------------------------|
...Complicateeeeed (complicateeeeeed)


-Chorus-
Matt & Padge
D||------------------------------------------------------------------|
A||o-----------------------------------------------------------------|
F||------------------------------------------------------------------|
C||--3-3-3-3-3-3-3-3-3-3-3-3-3-3-3-3-3-3-3-3-3-3-3-3-3-3-3-3-3-3-3-3-|
G||o-3-3-3-3-3-3-3-3-3-3-3-3-3-3-3-3-3-3-3-3-3-3-3-3-3-3-3-3-3-3-3-3-|
C||--3-3-3-3-3-3-3-3-3-3-3-3-3-3-3-3-3-3-3-3-3-3-3-3-3-3-3-3-3-3-3-3-|
-"So rip my pictures from your wall, tear them down and burn them all
(SO RIIIIIIIIIIIIIIP!!!)
-Take the ashes from the floor, bury them to just make sure

D|------------------------------------------------------------------||
A|-----------------------------------------------------------------o||
F|---------------------------------3-3-3-3-3-3-3-3-3-3-3-3-3-3-3-3--||
C|-0-0-0-0-0-0-0-0-0-0-0-0-0-0-0-0-3-3-3-3-3-3-3-3-3-3-3-3-3-3-3-3--||
G|-0-0-0-0-0-0-0-0-0-0-0-0-0-0-0-0-1-1-1-1-1-1-1-1-1-1-1-1-1-1-1-1-o||
C|-0-0-0-0-0-0-0-0-0-0-0-0-0-0-0-0----------------------------------||
...Light the fire and walk away, there's nothing left to say, soo
...That nothing more is left of me, just Bittersweet Memoooories"
                                        (Bittersweet Memoooories)

Matt
D|-----------------------------------------------------------------|
A|-----------------------------------------------------------------|
F|-----------------------------------------------------------------|
C|-3-3-3-3-3-3-3-3-3-3-3-3-3-3-3-3-0-0-0-0-0-0-0-0-0-0-0-0-0-0-0-0-|
G|-3-3-3-3-3-3-3-3-3-3-3-3-3-3-3-3-0-0-0-0-0-0-0-0-0-0-0-0-0-0-0-0-|
C|-3-3-3-3-3-3-3-3-3-3-3-3-3-3-3-3-0-0-0-0-0-0-0-0-0-0-0-0-0-0-0-0-|
Padge
D|--------------------------------------------------------------------------|
A|-5-5-5-6-6-6-5-5-5-6-6-6-3-3-3-3-10-10-10-11-11-11-8-8-8-10-10-10-6-6-6-6-|
F|-7-7-7-------7-7-7-------5-5-5-5------------------------------------------|
C|--------------------------------------------------------------------------|
G|--------------------------------------------------------------------------|
C|--------------------------------------------------------------------------|
"Whoooaaaaa ohhhhh ohhh oh Whoooaaaaa ohhhhh ohhh oh

Matt
D|---------------------------------------------------------------------|
A|---------------------------------------------------------------------|
F|-3-3-3-3-3-3-3-3-3-3-3-3-3-3-3-3-5-5-5-5-5-5-5-5-5-5-5-5-5-5-5-5-----|
C|-3-3-3-3-3-3-3-3-3-3-3-3-3-3-3-3-5-5-5-5-5-5-5-5-5-5-5-5-5-5-5-5-----|
G|-1-1-1-1-1-1-1-1-1-1-1-1-1-1-1-1-3-3-3-3-3-3-3-3-3-3-3-3-3-3-3-3-----|
C|-----------------------------------------------------------------12\-|
Padge
D|----------------------------------------------------------------|
A|-5-5-5-6-6-6-5-5-5-6-6-6-3-3-3-3--10--11--10--8--10--8--6--8--6-|
F|-7-7-7-------7-7-7-------5-5-5-5--------------------------------|
C|----------------------------------------------------------------|
G|----------------------------------------------------------------|
C|----------------------------------------------------------------|
Whoooaaaaa ohhhhh ohhh oh, There's nothing left to saaaay

Matt
D|-----------------------------------------------------------------|
A|-----------------------------------------------------------------|
F|-----------------------------------------------------------------|
C|-3-3-3-3-3-3-3-3-3-3-3-3-3-3-3-3-0-0-0-0-0-0-0-0-0-0-0-0-0-0-0-0-|
G|-3-3-3-3-3-3-3-3-3-3-3-3-3-3-3-3-0-0-0-0-0-0-0-0-0-0-0-0-0-0-0-0-|
C|-3-3-3-3-3-3-3-3-3-3-3-3-3-3-3-3-0-0-0-0-0-0-0-0-0-0-0-0-0-0-0-0-|
Padge
D|--------------------------------------------------------------------------|
A|-5-5-5-6-6-6-5-5-5-6-6-6-3-3-3-3-10-10-10-11-11-11-8-8-8-10-10-10-6-6-6-6-|
F|-7-7-7-------7-7-7-------5-5-5-5------------------------------------------|
C|--------------------------------------------------------------------------|
G|--------------------------------------------------------------------------|
C|--------------------------------------------------------------------------|
"Whoooaaaaa ohhhhh ohhh oh Whoooaaaaa ohhhhh ohhh oh

Matt
D|-----------------------------------------------------------------|
A|-----------------------------------------------------------------|
F|-3-3-3-3-3-3-3-3-3-3-3-3-3-3-3-3-5-5-5-5-5-5-5-5-5-5-5-5-5-5-5-5-|
C|-3-3-3-3-3-3-3-3-3-3-3-3-3-3-3-3-5-5-5-5-5-5-5-5-5-5-5-5-5-5-5-5-|
G|-1-1-1-1-1-1-1-1-1-1-1-1-1-1-1-1-3-3-3-3-3-3-3-3-3-3-3-3-3-3-3-3-|
C|-----------------------------------------------------------------|
Padge
D|----------------------------------------------------------------|
A|-5-5-5-6-6-6-5-5-5-6-6-6-3-3-3-3--10--11--10--8--10--8--6--8--6-|
F|-7-7-7-------7-7-7-------5-5-5-5--------------------------------|
C|----------------------------------------------------------------|
G|----------------------------------------------------------------|
C|----------------------------------------------------------------|
Whoooaaaaa ohhhhh ohhh oh, There's nothing left to saaaay"

Matt
D|----------------------------------------------------------------------------------|
A|----------------------------------------------------------------------------------|
F|----------------------------------------------------------------------------------|
C|-3~~~~~~~~~~~~~~~~~~~~~~~~~~~~~~~~~~~~~~~~~~~~~~~~~~~~~~~~~~~~~~~~~~~~~~~~~~~~~~~~|
G|-3~~~~~~~~~~~~~~~~~~~~~~~~~~~~~~~~~~~~~~~~~~~~~~~~~~~~~~~~~~~~~~~~~~~~~~~~~~~~~~~~|
C|-3~~~~~~~~~~~~~~~~~~~~~~~~~~~~~~~~~~~~~~~~~~~~~~~~~~~~~~~~~~~~~~~~~~~~~~~~~~~~~~~~|
Gtr 3
D|------------------------------------------------------------------------------------|
A|------------------------------------------------------------------------------------|
F|-12h14-12-10-12~~~~~~-12h14-12-10-9~~~~~~-12h14-12-14b=====r-12h14-12-10-9~~~~/14~~-|
C|------------------------------------------------------------------------------------|
G|------------------------------------------------------------------------------------|
C|------------------------------------------------------------------------------------|
Padge
D|-----------------------------------------------------------------------------------|
A|-----------------------------------------------------------------------------------|
F|-9h10---9--7--9~~~~~~-9h10--9--7--5~~~~~~-9h10---9-10b=====r-9h10--9--7--5~~~~/10~-|
C|-----------------------------------------------------------------------------------|
G|-----------------------------------------------------------------------------------|
C|-----------------------------------------------------------------------------------|
Tap to rate this tab
# A B C D E F G H I J K L M N O P Q R S T U V W X Y Z