Song name
# A B C D E F G H I J K L M N O P Q R S T U V W X Y Z

Bullet For My Valentine - A Place Where You Belong tab

Tuning for guitar CGCFAD

This is the first solo of the song, as as suggestion this should be played with
distortion and a slight bit of delay and reverb and to get a good effect

D]-------------------------------------------------------------------|
A]--------------------------------12----------------------12---12b---|
F]---------9----------12--11p9-8-9---9-8-9-8----9-11-9-11b--11rb-----|
C]-----9-11-11-11\----9^--------------------9-11---------------------|
G]-9-11--------------------------------------------------------------|
C]-------------------------------------------------------------------|

Next bit is a bit more difficult, not 100% sure on it, but its something for now until 
guys figure
something a bit more accurate out. Its almost all tapping, so practice changing strings 
tapping
and you'll get it pretty quick
-
D]--9h12p9h12-t16p12p9h12--------------------------------------------------------------|
A]-----------------------9h12p9h12-t16p12p9h12-----------------------------------------|
F]-------------------------------------------9h11p9h11-t16p11p9h11-8h9p8h9-t16p9p8h9---|
C]-------------------------------------------------------------------------------------|
G]-------------------------------------------------------------------------------------|
C]-------------------------------------------------------------------------------------|


D]--------------------------------------------|
A]--------------------------------------------|
F]--------------------------------------------|
C]---------9h11p9h11-t16p11p9h11--11----------| bend slightly
G]------------------------------9-------------|
C]--------------------------------------------|


Solo 2 isn't that complicated at all really apart from the pull offs at the
end which just need a bit of concentration and you'll nail them

D------------------------------------------------------------------------------------------|
A]-----16-14-16-16b-16br-14-16-hold-16br-14-16-14-16br-14------------16b-16br-14-19b-19br--|
F]-11/13-13-13------------------------------------------16---------------------------------|
C]--------------------------------------------------------16br-14--------------------------|
G]-----------------------------------------------------------------------------------------|
C]-----------------------------------------------------------------------------------------|


D]--------------------------------------------------------|
A]-16br-14-16-14-16br-14----------------------------------|
F]----------------------16-18-16-14-13-16-14-13-11-11br---|
C]--------------------------------------------------------|
G]--------------------------------------------------------|
C]--------------------------------------------------------|


D]--------------------------------9----12p9--------------|
A]--------------------9----12-9-12-12-9----12p9---9------|
F]--------9----11-9-11-11-9---------------------11-------|
C]-11-9-11-11-9------------------------------------------|
G]-------------------------------------------------------|
C]-------------------------------------------------------|


D]-14p9h12p9-------------16p12h14p12----------16-19---|b give it some balls!!!!!
A]----------12p9---x5---------------14p12--x5---------|
F]----------------------------------------------------|
C]----------------------------------------------------|
G]----------------------------------------------------|
C]----------------------------------------------------|


thats it, any suggestions are welcome!

cheers :)
Tap to rate this tab
 
# A B C D E F G H I J K L M N O P Q R S T U V W X Y Z