Song name
# A B C D E F G H I J K L M N O P Q R S T U V W X Y Z

Bullet For My Valentine - End Of Days tab

This is the End of Days solo. I tab this out from watching Padge in his
rock house video. On youtube people play it so many different ways and some
are somewhat accurate but if you want Padges version here it is. This is my
first tab so give me a break if its rusty.

Drop C
.    Palm Mute
fb   Full Bend
hb   Half Bend
v    Vibrato
p    Pull-off
r    Release bend
<<>> Tremolo picking

D-----17p13--13------17p13--13----------|
A----------17--17p13------17--17p13-----|
F---------------------------------------|  x2
C---------------------------------------|
G---------------------------------------|
C---------------------------------------|

D-----15p13--13------15p13--13----------|
A----------17--17p13------17--17p13-----|
F---------------------------------------|  x2
C---------------------------------------|
G---------------------------------------|
C---------------------------------------|

D----<<15>>-------15fb17~r15rv~~~~------|
A---------------------------------------|
F---------------------------------------|
C---------------------------------------|
G---------------------------------------|
C---------------------------------------|

D--------------13-----13-15--13-15-17-15-13-15fb17r~~~-|
A--17-13-15-17---15-17-----17--------------------------|
F------------------------------------------------------|
C------------------------------------------------------|
G------------------------------------------------------|
C------------------------------------------------------|


D-----13--17--13----------------------|
A--/15--15--15--13v~~--17-17hb18-15---|
F-------------------------------------|
C-------------------------------------|
G-------------------------------------|
C-------------------------------------|


D-----13--17--13------------------------|
A--/15--15--15--13v~~--17-17hb18-11v~~~-|
F---------------------------------------|
C---------------------------------------|
G---------------------------------------|
C---------------------------------------|


D-----------------10-12-12hb-12--15-13-12---|
A---------10-11-13-------------13-----------|
F--9-10-12----------------------------------|
C-------------------------------------------|
G-------------------------------------------|
C-------------------------------------------|
   . .  . .  .  .

D-----13--17--13----------------------|
A--/15--15--15--13v~~--17-17hb18-15---|
F-------------------------------------|
C-------------------------------------|
G-------------------------------------|
C-------------------------------------|


D-----13--17--13-------------------|
A--/15--15--15--13v~~--17-17hb18---|
F----------------------------------|
C----------------------------------|
G----------------------------------|
C----------------------------------|


D----------------------------------------------------------------|
A----------------------------------------------11----------------|
F-------------10--------------10-12-14-10-12-14--14-12-10-12-14--|
C--14-10-12-14--14-12-10-12-14-----------------------------------|
G----------------------------------------------------------------|
C----------------------------------------------------------------|

D-------------------12--------------12-13-15~~-13~~-15-------|
A--11-13-15-11-13-15--15-13-11-13-15------------------15~~---|
F------------------------------------------------------------|
C------------------------------------------------------------|
G------------------------------------------------------------|
C------------------------------------------------------------|

Have fun. Took me a while to learn but its hella fun to play. :):)
Tap to rate this tab
 
# A B C D E F G H I J K L M N O P Q R S T U V W X Y Z