Bullet For My Valentine - Just Another Star tab

got really annoyed looking at tabs with padges part wrong, so i lernt it by ear, in all 
other tabs it shows the chorus for padges part played like this
D|-----------10-------10------10-------------------------------------------|
A|--/11-11-11----11-11---11-11----11-11------------------------------------|
F|--------------------------------------9p10p9-----------------------------|
C|-------------------------------------------------------------------------|
G|-------------------------------------------------------------------------|
C|-------------------------------------------------------------------------|
 it is right but its akward to play , ive also seen drop d tabs. thats just plain silly 
d standard tuning with the low d tuned to c :D
right so here it is the real just another star tab.


intro
    . .    .   .    .    .    .   .   x2  . .    .   .    .    .    .
D|--------------------------------------|----------------------------------|
A|--------------------------------------|----------------------------------|
F|------10---9---10---12---10---9---10~-|-----10---9---10---12---10---9----|
C|--0-0----0---0----0----0----0---0-----|-0-0----0---0----0----0----0---10~|
G|--------------------------------------|----------------------------------|
C|--------------------------------------|----------------------------------|

   . .    .   .
D|-----------------------------|
A|--------------------17-------|
F|-----10---9---10----19b21----|
C|-0-0----0---0----------------|
G|-----------------------------|
C|-----------------------------|

Verse 1

Guitar 1
    . .    .   .    .    .    .   .   x2  . .    .   .    .    .    .
D|--------------------------------------|----------------------------------|
A|--------------------------------------|----------------------------------|
F|------10---9---10---12---10---9---10~-|-----10---9---10---12---10---9----|
C|--0-0----0---0----0----0----0---0-----|-0-0----0---0----0----0----0---10~|
G|--------------------------------------|----------------------------------|
C|--------------------------------------|----------------------------------|


   . .    .   .
D|-----------------------------|
A|--------------------17-------|
F|-----10---9---10----19b21----|
C|-0-0----0---0----------------|
G|-----------------------------|
C|-----------------------------|

Bridge (Jump,Jump,Jump,Jump)

   . .    . .    . .    . .           x4
D|--------------------------------------|
A|--------------------------------------|
F|-----10------9-----12-----9-----------|
C|-----10------9-----12-----9-----------|
G|-----8-------7-----10-----7-----------|
C|-0-0----0-0----0-0----0-0-------------|

Pre-Chorus x2


     . .   . .   . .   . .   .       . .   . .
D|-------------------------------------------------------------------------|
A|-------------------------------------------------------------------------|
F|-------------------------------------------------------------------------|
C|-1-0-0-1-0-0-1-0-0-1-0-0-1-0-1---1-0-0-1-0-0-1---------------------------|
G|-1-0-0-1-0-0-1-0-0-1-0-0-1-0-1---1-0-0-1-0-0-1---------------------------|
C|-1-0-0-1-0-0-1-0-0-1-0-0-1-0-1---1-0-0-1-0-0-1---------------------------|


Verse 2


    . .    .   .    .    .    .   .   x2  . .    .   .    .    .    .
D|--------------------------------------|----------------------------------|
A|--------------------------------------|----------------------------------|
F|------10---9---10---12---10---9---10~-|-----10---9---10---12---10---9----|
C|--0-0----0---0----0----0----0---0-----|-0-0----0---0----0----0----0---10~|
G|--------------------------------------|----------------------------------|
C|--------------------------------------|----------------------------------|


   . .    .   .
D|-----------------------------|
A|--------------------17-------|
F|-----10---9---10----19b21----|
C|-0-0----0---0----------------|
G|-----------------------------|
C|-----------------------------|

Bridge (Jump,Jump,Jump,Jump)

   . .    . .    . .    . .           x4
D|--------------------------------------|
A|--------------------------------------|
F|-----10------9-----12-----9-----------|
C|-----10------9-----12-----9-----------|
G|-----8-------7-----10-----7-----------|
C|-0-0----0-0----0-0----0-0-------------|

Pre-Chorus x2


     . .   . .   . .   . .   .       . .   . .
D|-------------------------------------------------------------------------|
A|-------------------------------------------------------------------------|
F|-------------------------------------------------------------------------|
C|-1-0-0-1-0-0-1-0-0-1-0-0-1-0-1---1-0-0-1-0-0-1---------------------------|
G|-1-0-0-1-0-0-1-0-0-1-0-0-1-0-1---1-0-0-1-0-0-1---------------------------|
C|-1-0-0-1-0-0-1-0-0-1-0-0-1-0-1---1-0-0-1-0-0-1---------------------------|

Chorus

D|-------------------------------------------------------------------------|
A|-------------------------------------------------------------------------|
F|-------------------------------------------------------------------------|
C|-8-8-8-8-8-8-8-8-8-8-8-8-8-8-8-8-10-10-10-10-10-10-10-10-10-10-10-10-10--|
G|-8-8-8-8-8-8-8-8-8-8-8-8-8-8-8-8-10-10-10-10-10-10-10-10-10-10-10-10-10--|
C|-8-8-8-8-8-8-8-8-8-8-8-8-8-8-8-8-10-10-10-10-10-10-10-10-10-10-10-10-10--|


D|------------------------------------------------|
A|------------------------------------------------|
F|------------------------------------------------|
C|--8-8-8-8-8-8-8-8-8-8-8-8-8-8-8-8---3-----5-----|
G|--8-8-8-8-8-8-8-8-8-8-8-8-8-8-8-8---3-----5-----|
C|--8-8-8-8-8-8-8-8-8-8-8-8-8-8-8-8---3-----5-----|

|-------------------------|---------------------------|
|-------------------------|---------------------------|
|-17p15-15-19p15-15-17p15-|-15-19p15-15-9h10p==9------|
|-------------------------|----------------------10---|
|-------------------------|---------------------------|
|-------------------------|---------------------------|


|-------------------------|--------------------------------|
|-------------------------|--------------------------------|
|-17p15-15-19p15-15-17p15-|-15-19p15-15--9h10p===9---------|
|-------------------------|------------------------10------|
|-------------------------|--------------------------------|
|-------------------------|--------------------------------|


Guitar 1:
     . . .     . . .      . . .         x4
D|---------------------------------------|
A|---------------------------------------|
F|-7-------8-5-------10-7-------8-7-5-7--|
C|-7-------8-5-------10-7-------8-7-5-7--|
G|-5-------6-7-------8--5-------6-5-3-5--|
C|---0-0-0-----0-0-0------0-0-0----------|

Little solo thing (use wah)


||-------------------------|------------------------|
||o------------------------|------------------------|
||-------------------------|------------------------|
||----13-12-10-------10----|---13-12-10-------10----|
||o------------12-13----12-|------------12-13----12-|
||-------------------------|------------------------|


|-----------------------|--------------------------||
|-----------------------|-------------------------o||
|-----------------------|--------------------------||
|---13-12-10-------10---|-12tr13-------------------||
|------------12-13------|--------------12tr13-----o||
|-----------------------|--------------------------||


 Interlude

|----------|------------|------------|-----------------|
|----------|------------|------------|-----------------|
|----------|------------|------------|-----------------|
|-8--------|-(8)--------|-(8)--------|-(8)------(8)\---|
|-8--------|-(8)--------|-(8)--------|-(8)------(8)\---|
|-8--------|-(8)--------|-(8)--------|-(8)------(8)\---|

  Bb5

|------------|--------------|--------------|--------------|
|------------|--------------|--------------|--------------|
|------------|--------------|--------------|--------------|
|-8---8---8--|-(8)-8---8----|--8----8---8--|-(8)-8---8----|
|-8---8---8--|-(8)-8---8----|--8----8---8--|-(8)-8---8----|
|-8---8---8--|-(8)-8---8----|--8----8---8--|-(8)-8---8----|

  PM--------------------------------------------------------|
|-------------|-------------|-------------|-----------------|
|-------------|-------------|-------------|-----------------|
|-------------|-------------|-------------|-----------------|
|-------------|-------------|-------------|-----------------|
|-8--8--8--8--|-8--8--8--8--|-8--8--8--8--|-8--8--8-8-8-----|
|-8--8--8--8--|-8--8--8--8--|-8--8--8--8--|-8--8--8-8-8-----|

   PM-----------------------------------------------------------------|
|-----------------|-----------------|----------------|----------------|
|-----------------|-----------------|----------------|----------------|
|-----------------|-----------------|----------------|----------------|
|-----------------|-----------------|-10--10--10--3--|-(3)----5-------|
|-10--10--10--10--|-10--10--10--10--|-10--10--10--3--|-(3)----5-------|
|-10--10--10--10--|-10--10--10--10--|-10--10--10--3--|-(3)----5-------|


|-------------------------|---------------------------|
|-------------------------|---------------------------|
|-17p15-15-19p15-15-17p15-|-15-19p15-15-9h10p==9------|
|-------------------------|----------------------10---|
|-------------------------|---------------------------|
|-------------------------|---------------------------|


|-------------------------|--------------------------------|
|-------------------------|--------------------------------|
|-17p15-15-19p15-15-17p15-|-15-19p15-15--9h10p===9---------|
|-------------------------|------------------------10------|
|-------------------------|--------------------------------|

  PM---------------------|
|------------------------|
|------------------------|
|------------------------|
|-(3)----5---------------|
|-(3)----5---------------|
|-(3)----5---------------|

|-------------------------|---------------------------|
|-------------------------|---------------------------|
|-17p15-15-19p15-15-17p15-|-15-19p15-15-9h10p==9------|
|-------------------------|----------------------10---|
|-------------------------|---------------------------|
|-------------------------|---------------------------|

|-------------------------|--------------------------------|
|-------------------------|--------------------------------|
|-17p15-15-19p15-15-17p15-|-15-19p15-15--9h10p===9---------|
|-------------------------|------------------------10------|
|-------------------------|--------------------------------|
|-------------------------|--------------------------------|

PM---------------------|
|----------------------|
|----------------------|
|----------------------|
|-(3)----5-------------|
|-(3)----5-------------|
|-(3)----5-------------|

Guitar 1:
     . . .     . . .      . . .         x4
D|---------------------------------------|
A|---------------------------------------|
F|-7-------8-5-------10-7-------8-7-5-7--|
C|-7-------8-5-------10-7-------8-7-5-7--|
G|-5-------6-7-------8--5-------6-5-3-5--|
C|---0-0-0-----0-0-0------0-0-0----------|

little solo thing again
||-------------------------|------------------------|
||o------------------------|------------------------|
||-------------------------|------------------------|
||----13-12-10-------10----|---13-12-10-------10----|
||o------------12-13----12-|------------12-13----12-|
||-------------------------|------------------------|


|-----------------------|--------------------------||
|-----------------------|-------------------------o||
|-----------------------|--------------------------||
|---13-12-10-------10---|-12tr13-------------------||
|------------12-13------|--------------12tr13-----o||
|-----------------------|--------------------------||


|-----------------|------------------|---------------|--------|
|-----------------|------------------|---------------|--------|
|-----14--12--14--|-15--14--12--14\--|---------------|--------|
|-----------------|------------------|---------------|--------|
|-0-0-------------|------------------|-0-0--0-0--0-0-|--------|
|-0-0-------------|------------------|-0-0--0-0--0-0-|--------|
Tap to rate this tab
 
# A B C D E F G H I J K L M N O P Q R S T U V W X Y Z