Song name
# A B C D E F G H I J K L M N O P Q R S T U V W X Y Z

Bullet For My Valentine - Waking The Demon tab

Hi!

This is my first tab ever and i am going to be tabbing Waking The Demon by
Bullet For My Valentine.

Im only giving Matt Tuck's part because i have to figure out the solo for Paget's part.

PS:THE SONG IS PLAYED IN DROP C BUT IM GIVING THE TAB FOR THE STANDARD TUNING VERSION OF 
SONG.

Please do comment if there are any mistakes.

Here we go...

Tuning:Standard- EADGBE

Intro:

REPEAT THIS WHOLE THING 5 TIMES:

E|-------------------------------------------------------------------------|
B|-------------------------------------------------------------------------|
G|-------------------------------------------------------------------------|
D|-------------------------------------------------------------------------|
A|-------1p0----3p0-------------------1p0----3p0---------------------------|
E|--0000-----00-----00-1p0-3p0---0000-----00-----00-1---3------------------|
    ....     ..     ..           ....     ..     ..

E|-------------------------------------------------------------------------|
B|-------------------------------------------------------------------------|
G|-------------------------------------------------------------------------|
D|-------------------------------------------5p2-3p2-----------------------|
A|-------1p0----3p0-------------------1p0------------4p1-1p0---------------|
E|--0000-----00-----00-1p0-3p0---0000-----00-------------------------------|
    ....     ..     ..           ....     ..

After you play the above riff five times,play:

  "Two,Three,Four.."
E|-------------------------------------------------------------------------|
B|-------------------------------------------------------------------------|
G|--5----------------------------------------------------------------------|
D|--5-(let ring)-----------------------------------------------------------|
A|--3----------------------------------------------------------------------|
E|-------------------------------------------------------------------------|

E|-------------------------------------------------------------------------|
B|-------------------------------------------------------------------------|
G|-------------------------------------------------------------------------|
D|--5p2-3p2---------7p4-5p4------------------------------------------------|
A|----------4p1-1p0---------6p3-4p3----------------------------------------|
E|-------------------------------------------------------------------------|

Verse:

  "Helpless!"                   "My eyes are bleeding from..
E|-------------------------------------------------------------------------|
B|-------------------------------------------------------------------------|
G|-------------------------------------------------------------------------|
D|-------------------------------------------------------------------------|
A|-------1p0----3p0-------------------1p0----3p0---------------------------|
E|--0000-----00-----00-1p0-3p0---0000-----00-----00-1---3------------------|
    ....     ..     ..           ....     ..     ..

  ..fear that's inside!"        "You sealed your demise when you..
E|-------------------------------------------------------------------------|
B|-------------------------------------------------------------------------|
G|-------------------------------------------------------------------------|
D|-------------------------------------------5p2-3p2-----------------------|
A|-------1p0----3p0-------------------1p0------------4p1-1p0---------------|
E|--0000-----00-----00-1p0-3p0---0000-----00-------------------------------|
    ....     ..     ..           ....     ..

  ..took what was mine!"        "Don't try and stop me from..
E|-------------------------------------------------------------------------|
B|-------------------------------------------------------------------------|
G|-------------------------------------------------------------------------|
D|-------------------------------------------------------------------------|
A|-------1p0----3p0-------------------1p0----3p0---------------------------|
E|--0000-----00-----00-1p0-3p0---0000-----00-----00-1---3------------------|
    ....     ..     ..           ....     ..     ..

  ..avenging this world"       "No voice to be heard!"
E|-------------------------------------------------------------------------|
B|-------------------------------------------------------------------------|
G|-------------------------------------------------------------------------|
D|-------------------------------------------5p2-3p2-----------------------|
A|-------1p0----3p0-------------------1p0------------4p1-1p0---------------|
E|--0000-----00-----00-1p0-3p0---0000-----00-------------------------------|
    ....     ..     ..           ....     ..

Chorus:

   "Waking the demon!"             "Where d'ya..
E|-------------------------------------------------------------------------|
B|-------------------------------------------------------------------------|
G|-------------------------------------------------------------------------|
D|-----------------------------------5--7----------------------------------|
A|--1p0------1p0------------1p0------3--5----------------------------------|
E|------3p0------3p0--0000------3p0----------------------------------------|
                      ....

  ..run to?"
E|-------------------------------------------------------------------------|
B|-------------------------------------------------------------------------|
G|-------------------------------------------------------------------------|
D|-------------------------------------------------------------------------|
A|--1p0-----1p0---------1p0------7--5--------------------------------------|
E|------3p0-----0-0000------3p0--------------------------------------------|
                  ....

   "Walking in shadows!"           "Watch the..
E|-------------------------------------------------------------------------|
B|-------------------------------------------------------------------------|
G|-------------------------------------------------------------------------|
D|-----------------------------------5--7----------------------------------|
A|--1p0------1p0------------1p0------3--5----------------------------------|
E|------3p0------3p0--0000------3p0----------------------------------------|
                      ....

  ..blood flow"
E|-------------------------------------------------------------------------|
B|-------------------------------------------------------------------------|
G|-------------------------------------------------------------------------|
D|-------------------------------------------------------------------------|
A|--1p0-----1p0---------1p0------7--5--------------------------------------|
E|------3p0-----0-0000------3p0--------------------------------------------|
                  ....

 "Theres not much longer so dont try n fight"
                                      "Your body's weakenin,walk to the..
E|-------------------------------------------------------------------------|
B|-------------------------------------------------------------------------|
G|-------------------------------------------------------------------------|
D|-------------------------------------------------------------------------|
A|-3333333333333333/55555555--------7777777777777777/1010101010101010\-----|
E|--------------------------77777777---------------------------------------|


  ..light"
E|-------------------------------------------------------------------------|
B|-------------------------------------------------------------------------|
G|-------------------------------------------------------------------------|
D|-------------------------------------------------------------------------|
A|-9999\7777---------------------------------------------------------------|
E|-------------------------------------------------------------------------|


 "Those painful times so alone so ashamed"
                             "Im not comin back,theres nothin to gain!"
E|----------------------------------------------------------------|--------|
B|----------------------------------------------------------------|--------|
G|----------------------------------------------------------------|--------|
D|----------------------------------------------------------------|--------|
A|-3333333333333333/55555555--------7777777777777777\-------------|-3-7*---|
E|--------------------------77777777------------------------------|--------|

Verse 2:

  "Caution!"                    "Theres just no limits to the..
E|-------------------------------------------------------------------------|
B|-------------------------------------------------------------------------|
G|-------------------------------------------------------------------------|
D|-------------------------------------------------------------------------|
A|-------1p0----3p0-------------------1p0----3p0---------------------------|
E|--0000-----00-----00-1p0-3p0---0000-----00-----00-1---3------------------|
    ....     ..     ..           ....     ..     ..

  ..boundaries you push"        "I've warned you but still you just..
E|-------------------------------------------------------------------------|
B|-------------------------------------------------------------------------|
G|-------------------------------------------------------------------------|
D|-------------------------------------------5p2-3p2-----------------------|
A|-------1p0----3p0-------------------1p0------------4p1-1p0---------------|
E|--0000-----00-----00-1p0-3p0---0000-----00-------------------------------|
    ....     ..     ..           ....     ..

  ..f*** with my mind!"         "Theres no escape from this..
E|-------------------------------------------------------------------------|
B|-------------------------------------------------------------------------|
G|-------------------------------------------------------------------------|
D|-------------------------------------------------------------------------|
A|-------1p0----3p0-------------------1p0----3p0---------------------------|
E|--0000-----00-----00-1p0-3p0---0000-----00-----00-1---3------------------|
    ....     ..     ..           ....     ..     ..

  ..rage that i feel"           "Nothing is real!"
E|-------------------------------------------------------------------------|
B|-------------------------------------------------------------------------|
G|-------------------------------------------------------------------------|
D|-------------------------------------------5p2-3p2-----------------------|
A|-------1p0----3p0-------------------1p0------------4p1-1p0---------------|
E|--0000-----00-----00-1p0-3p0---0000-----00-------------------------------|
    ....     ..     ..           ....     ..

Chorus 2:

 "Waking the demon!"             "Where d'ya..
E|-------------------------------------------------------------------------|
B|-------------------------------------------------------------------------|
G|-------------------------------------------------------------------------|
D|-----------------------------------5--7----------------------------------|
A|--1p0------1p0------------1p0------3--5----------------------------------|
E|------3p0------3p0--0000------3p0----------------------------------------|
                      ....

  ..run to?"
E|-------------------------------------------------------------------------|
B|-------------------------------------------------------------------------|
G|-------------------------------------------------------------------------|
D|-------------------------------------------------------------------------|
A|--1p0-----1p0---------1p0------7--5--------------------------------------|
E|------3p0-----0-0000------3p0--------------------------------------------|
                  ....

   "Walking in shadows!"           "Watch the..
E|-------------------------------------------------------------------------|
B|-------------------------------------------------------------------------|
G|-------------------------------------------------------------------------|
D|-----------------------------------5--7----------------------------------|
A|--1p0------1p0------------1p0------3--5----------------------------------|
E|------3p0------3p0--0000------3p0----------------------------------------|
                      ....

  ..blood flow"
E|-------------------------------------------------------------------------|
B|-------------------------------------------------------------------------|
G|-------------------------------------------------------------------------|
D|-------------------------------------------------------------------------|
A|--1p0-----1p0---------1p0------7--5--------------------------------------|
E|------3p0-----0-0000------3p0--------------------------------------------|
                  ....

 "Theres not much longer so dont try n fight"
                                      "Your body's weakenin,walk to the..
E|-------------------------------------------------------------------------|
B|-------------------------------------------------------------------------|
G|-------------------------------------------------------------------------|
D|-------------------------------------------------------------------------|
A|-3333333333333333/55555555--------7777777777777777/1010101010101010\-----|
E|--------------------------77777777---------------------------------------|


  ..light"
E|-------------------------------------------------------------------------|
B|-------------------------------------------------------------------------|
G|-------------------------------------------------------------------------|
D|-------------------------------------------------------------------------|
A|-9999\7777---------------------------------------------------------------|
E|-------------------------------------------------------------------------|


"Those painful times so alone so ashamed"
                             "Im not comin back,theres nothin to gain!"
E|-------------------------------------------------------------------------|
B|-------------------------------------------------------------------------|
G|-------------------------------------------------------------------------|
D|-------------------------------------------------------------------------|
A|-3333333333333333/55555555--------7777777777777777---------\\\\\\\\\\----|
E|--------------------------77777777-------------------------\\\\\\\\\\----|

Breakdown 1:

  "Breathe for me!           ..Don't wake me from this slumber"
E|-------------------------------------------------------------------------|
B|--/8-7---7-----/8-7---7-----/8-7---8---10---8---7---8--------------------|
G|-------7---7--------7---9--------7---7----7---7---7---7------------------|
D|-------------------------------------------------------------------------|
A|-------------------------------------------------------------------------|
E|-------------------------------------------------------------------------|


   "Stay with me!            ..Possession taking over"
E|-------------------------------------------------------------------------|
B|--/8-7---7-----/8-7---7-----/8-7---8---10---8---7---8--------------------|
G|-------7---7--------7---9--------7---7----7---7---7---7*-----------------|
D|-------------------------------------------------------------------------|
A|-------------------------------------------------------------------------|
E|-------------------------------------------------------------------------|

"Breathe for me!           ..Don't wake me from this slumber"
E|-------------------------------------------------------------------------|
B|--/8-7---7-----/8-7---7-----/8-7---8---10---8---7---8--------------------|
G|-------7---7--------7---9--------7---7----7---7---7---7------------------|
D|-------------------------------------------------------------------------|
A|-------------------------------------------------------------------------|
E|-------------------------------------------------------------------------|


   "Stay with me!            ..Possession taking over"
E|-------------------------------------------------------------------------|
B|--/8-7---7-----/8-7---7-----/8-7---8---10---8---7---8--------------------|
G|-------7---7--------7---9--------7---7----7---7---7---7------------------|
D|-------------------------------------------------------------------------|
A|-------------------------------------------------------------------------|
E|-------------------------------------------------------------------------|

Bridge before solo:

E|-------------------------------------------------------------------------|
B|-------------------------------------------------------------------------|
G|-------------------------------------------------------------------------|
D|-------------------------------------------------------------------------|
A|--2---22222---22222---22222---2222---------------------------------------|
E|--0---00000---00000---00000---0000---------------------------------------|
    .   .....   .....   .....   ....

                                                        "Noo TRIP!"
E|-------------------------------------------------------------------------|
B|-------------------------------------------------------------------------|
G|-------------------------------------------------------------------------|
D|-------------------------------------------------------------------------|
A|1------1------1-3-1------1------1-3-1------1------1-3--------------------|
E|1-0000-1-0000-1-3-1-0000-1-0000-1-3-1-0000-1-0000-1-3-0000000000---------|

Matt's part during the solo:

Play this two times:


E|-------------------------------------------------------------------------|
B|-------------------------------------------------------------------------|
G|-------------------------------------------------------------------------|
D|-------------------------------------------------------------------------|
A|-------1p0----3p0-------------------1p0----3p0---------------------------|
E|--0000-----00-----00-1p0-3p0---0000-----00-----00-1---3------------------|
    ....     ..     ..           ....     ..     ..

E|-------------------------------------------------------------------------|
B|-------------------------------------------------------------------------|
G|-------------------------------------------------------------------------|
D|-------------------------------------------5p2-3p2-----------------------|
A|-------1p0----3p0-------------------1p0------------4p1-1p0---------------|
E|--0000-----00-----00-1p0-3p0---0000-----00-------------------------------|
    ....     ..     ..           ....     ..

I still need to to figure out the leadish part after the solo sry :(

after that leadish part play the "breathe for me breakdown " which will begin with pick 
after the leadish part then after that...

Outro:

E|-------------------------------------------------------------------------|
B|-------------------------------------------------------------------------|
G|-------------------------------------------------------------------------|
D|-------------------------------------------------------------------------|
A|-------1p0----3p0-------------------1p0----3p0---------------------------|
E|--0000-----00-----00-1p0-3p0---0000-----00-----00-1---3------------------|
    ....     ..     ..           ....     ..     ..

E|-------------------------------------------------------------------------|
B|-------------------------------------------------------------------------|
G|-------------------------------------------------------------------------|
D|-------------------------------------------5p2-3p2---------7p4-5p4-------|
A|-------1p0----3p0-------------------1p0------------4p1-1p0--------6p3-4p3|
E|--0000-----00-----00-1p0-3p0---0000-----00-------------------------------|
    ....     ..     ..           ....     ..

  "WAKING THE DEMON!"
E|-------------------------------------------------------------------------|
B|-------------------------------------------------------------------------|
G|-------------------------------------------------------------------------|
D|-------------------------------------------------------------------------|
A|--2-------------2--------------------------------------------------------|
E|--0----------0000--------------------------------------------------------|
               ...

palm mute = .
forward slide= /
backward slide= \
pinch harmonic= *
pull offs = p


There you go!Ill try posting paget's part and the leadish thingy after the solo as soon 
possbile.
I hope this helped!
ENJOY!

^^
Tap to rate this tab
 
# A B C D E F G H I J K L M N O P Q R S T U V W X Y Z