Song name
# A B C D E F G H I J K L M N O P Q R S T U V W X Y Z

Bullet For My Valentine - The End tab

Well, this tab should be slightly better than others I've seen.
Let me know what you think. People randomly saying the tab sucks
with little to no constructive input = PERMANENT BAN! 
Just Kidding. Bitch all you want. Peace.

-Thud



  Guitar #1  Clean 0:00-0:23 
D|-------------------------------------------------------------------|
A|-------------------------------------------------------------------|
F|---10--9----10~-10--9---7~-----------------------------------------|
C|-------------------------------------------------------------------|X3
G|--0---0--00----0---0--00-------------------------------------------|
C|-0------------0----------------------------------------------------|

  Guitar #1 Clean  0:23-0:31
D|-------------------------------------------------------------------|
A|-------------------------------------------------------------------|
F|---10--9----10/12~---10--9\7---7~----------------------------------|
C|-------------------------------------------------------------------|
G|--0---0---00--------0--0-----0-------------------------------------|
C|-0-----------------0-----------------------------------------------|

  Guitar #2 Clean  0:23-0:32
D|-------------------------------------------------------------------|
A|-------------------------------------------------------------------|
F|---------------------10--9\7---7~----------------------------------|
C|-------------------------------------------------------------------|
G|-------------------------------------------------------------------|
C|-------------------------------------------------------------------|




  Guitar #1 Clean  0:31-1:21
D|-------------------------------------------------------------------|
A|-------------------------------------------------------------------|
F|---10--9---10--9---------------10--9--10--9--10/12~----------------|
C|-------------------10101210----------------------------------------|
G|--0--0---00--0--00------------0--0--00--0---0----------------------|
C|-0---------------------------0-------------------------------------|
                                                                      X3
D|-------------------------------------------------------------------|
A|-------------------------------------------------------------------|
F|---10--9---10--9---------------10--9\7---7~------------------------|
C|-------------------10101210----------------------------------------|
G|--0--0---00--0--00------------0--0-----0---------------------------|
C|-0---------------------------0-------------------------------------|

  Guitar #2 Clean  0:31-1:21
D|-------------------------------------------------------------------|
A|-6~----------------------------------------------------------------|
F|--7~---------------------------------------------------------------|
C|---0~--------------------------------------------------------------|
G|-------------------------------------------------------------------|
C|-------------------------------------------------------------------|




  Guitar #1 Distorted  1:21-1:37
D|-------------------------------------------------------------------|
A|-------------------------------------------------------------------|
F|-/10~-10b12r9~---/14~-14b15r12/10~---------------------------------|
C|-------------------------------------------------------------------|
G|-------------------------------------------------------------------|
C|-------------------------------------------------------------------|

  Guitar #2 Distorted  1:21-1:37
D|-------------------------------------------------------------------|
A|-------------------------------------------------------------------|
F|-/10~-10b12r9~---/10~-10b11r9~\7-----------------------------------|
C|-------------------------------------------------------------------|
G|-------------------------------------------------------------------|
C|-------------------------------------------------------------------|




  Guitar #1 Distorted Pickslide  1:37-1:38
D|-------------------------------------------------------------------|
A|-------------------------------------------------------------------|
F|-------------------------------------------------------------------|
C|-------------------------------------------------------------------|
G|-\\\\\\\\\\\\\\\\\\\\----------------------------------------------|
C|-------------------------------------------------------------------|
 |                                                                   |
 |Guitar #1 Distorted  1:38-1:55                                     |
D|-------------------------------------------------------------------|
A|-------------------------------------------------------------------|
F|-10t--9t--12t--14t--19t--------------------------------------------|
C|-------------------------------------------------------------------|
G|-------------------------------------------------------------------|
C|-----------------------------------------b6r4----------------------|

  Guitar #2 Distorted  1:38-1:55
D|-------------------------------------------------------------------|
A|-------------------------------------------------------------------|
F|-------------------------------------------------------------------|
C|-7t---8t--5t---10t--12t--------------------------------------------|
G|-------------------------------------------------------------------|
C|-----------------------------------------b6r4----------------------|




  Guitar #1 Clean  1:55-2:28
D|-------------------------------------------------------------------|
A|-------------------------------------------------------------------|
F|---10--9---10--9---------------10--9--10--9--10/12~----------------|
C|-------------------10101210----------------------------------------|
G|--0--0---00--0--00------------0--0--00--0---0----------------------|
C|-0---------------------------0-------------------------------------|
 |                                                                   |  X2
D|-------------------------------------------------------------------|
A|-------------------------------------------------------------------|
F|---10--9---10--9---------------10--9\7---7~------------------------|
C|-------------------10101210----------------------------------------|
G|--0--0---00--0--00------------0--0-----0---------------------------|
C|-0---------------------------0-------------------------------------|

  Guitar #2 
  Clean  1:55-2:00      Distorted 2:09-2:11      Clean 2:24-2:28
D|----------------|    |-------------------|    |--------------------|
A|-6~-------------|    |-------------------|    |--------------------|
F|--7~------------|    |-------------------|    |--10--9\7---7~------|
C|---0~-----------|    |-------------------|    |--------------------|
G|----------------|    |--0000-0000-0------|    |--------------------|
C|----------------|    |--0000-0000-0------|    |--------------------|
                          .... .... .




  Guitar #1 Distorted  2:28-2:44
D|-------------------------------------------------------------------|
A|-------------------------------------------------------------------|
F|-/10~-10b12r9~---/14~-14b15r12/10~---------------------------------|
C|-------------------------------------------------------------------|
G|-------------------------------------------------------------------|
C|-------------------------------------------------------------------|

  Guitar #2 Distorted  2:28-2:44
D|-------------------------------------------------------------------|
A|-------------------------------------------------------------------|
F|-/10~-10b12r9~---/10~-10b11r9~\7~----------------------------------|
C|-------------------------------------------------------------------|
G|-------------------------------------------------------------------|
C|-------------------------------------------------------------------|




  Guitar #1 Distorted Pickslide  2:44-2:45
D|-------------------------------------------------------------------|
A|-------------------------------------------------------------------|
F|-------------------------------------------------------------------|
C|-------------------------------------------------------------------|
G|-\\\\\\\\\\\\\\\\\\\\----------------------------------------------|
C|-------------------------------------------------------------------|

  Guitar #1 Distorted  2:44-3:02
D|-------------------------------------------------------------------|
A|-------------------------------------------------------------------|
F|-10t--9t--12t--14t--19t--------------------------------------------|
C|-------------------------------------------------------------------|
G|-------------------------------------------------------------------|
C|-------------------------------------------------------------------|

  Guitar #2 Distorted  2:44-3:02
D|----------------------------------------------|--------------------|
A|----------------------------------------------|--------------------|
F|----------------------------------------------|--------------------|
C|-7t---8t--5t---10t--12t-----------------------|------10\-----------|
G|----------------------------------------------|------10\-----------|
C|----------------------------------------------|------10\-----------|




  Guitars #1 and #2  3:02-3:30  
D|-------------------------------------------------------------------|
A|-------------------------------------------------------------------|
F|-------------------------------------------------------------------|
C|---------7-----------7-7---------------7-----------7-7-------------|
G|-0-0-0-0-8---0-0-0-0-8-7-------0-0-0-0-8---0-0-0-0-8-7-7-----------|
C|-0-0-0-0-----0-0-0-0-------10--0-0-0-0-----0-0-0-0-----------------|
 | . . . .     . . . .           . . . .     . . . .                 |
D|-------------------------------------------------------------------|
A|-------------------------------------------------------------------|
F|-------------------------------------------------------------------|
C|---------7----------7-7------------7------------0h10\--------------|
G|---------8----------8-7-7----------8------------0h10\--------------|
C|-0-0-0-0-----0-0-0-0--------0-0-0-0---0-0-0-0---0h10\--------------|
 | . . . .     . . . .        . . . .   . . . .                      |
D|-------------------------------------------------------------------|
A|-------------------------------------------------------------------|
F|-------------------------------------------------------------------|
C|---------7-----------7-7---------------7-----------7-7-------------|
G|-0-0-0-0-8---0-0-0-0-8-7-------0-0-0-0-8---0-0-0-0-8-7-7-----------|
C|-0-0-0-0-----0-0-0-0-------10--0-0-0-0-----0-0-0-0-----------------|
 | . . . .     . . . .           . . . .     . . . .                 |
D|-------------------------------------------------------------------|
A|-------------------------------------------------------------------|
F|-------------------------------------------------------------------|
C|---------7----------7-7--------7p0-5p0-3p0-2p0-2/3/5/7------0~-----|
G|-0-0-0-0-8---0-0-0-0-8-7------------------------------------0~-----|
C|-0-0-0-0-----0-0-0-0-------10-------------------------------0~-----|
   . . . .     . . . .                                                



  Guitar #1 Distorted  3:30-3:35
D|-------------------------------------------------------------------|
A|-------------------------------------------------------------------|
F|-10\------------------------10-------------------------------------|
C|-10\-----------6------------10--------------14h15p14--10/12--------|
G|--8\-----0-0-0-6--0-0-0-0-0--8--0-0-0-0-0-0------------------------|
C|------00-0-0-0-6--0-0-0-0-0-----0-0-0-0-0-0------------------15\---|


  Gutiar #1 Distorted 3:35-3:40
D|-------------------------------------------------------------------|
A|-------------------------------------------------------------------|
F|----------------------------10-------------------------------------|
C|--------------6-------------10------------14h15p14--10/12----------|
G|--0-0-0-0-0---6---0-0-0-0-0--8--0-0-0-0-0--------------------------|
C|--0-0-0-0-0---6---0-0-0-0-0-----0-0-0-0-0------------------15\-----|
 |  . . . . .       . . . . .     . . . . .                          |
 |Guitar #2 Distorted  3:30-3:40                                     |
D|-------------------------------------------------------------------|
A|-------------------------------------------------------------------|
F|-------------------------------------------------------------------|
C|-------------------------------------------------------------------|
G|--0-0-0-0-0-------0-0-0-0-0-----0-0-0-0-0-10h12p10--7/8-----8\-----|
C|--0-0-0-0-0-------0-0-0-0-0-----0-0-0-0-0--------------------------|
    . . . . .       . . . . .     . . . . .


  Guitar #1 Distorted  3:40-3:45
D|-------------------------------------------------------------------|
A|-------------------------------------------------------------------|
F|----------------------------10-------------------------------------|
C|--------------6-------------10------------14h15p14--10/12----------|
G|--0-0-0-0-0---6---0-0-0-0-0--8--0-0-0-0-0--------------------------|
C|--0-0-0-0-0---6---0-0-0-0-0-----0-0-0-0-0------------------15\-----|
 |  . . . . .       . . . . .     . . . . .                          |
 |Guitar #2 Distorted  3:40-3:45                                     |
D|-------------------------------------------------------------------|
A|-------------------------------------------------------------------|
F|----------------------------10-------------------------------------|
C|--------------6-------------10-------------------------------------|
G|--0-0-0-0-0---6---0-0-0-0-0--8--0-0-0-0-0-10h12p10--7/8-----8\-----|
C|--0-0-0-0-0---6---0-0-0-0-0-----0-0-0-0-0--------------------------|
    . . . . .       . . . . .     . . . . .




  (REPEAT THIS ENTIRE SECTION FROM 3:45-4:16)
  Guitar #1 Distorted  3:45-4:16
D|-------------------------------------------------------------------|
A|-------------------------------------------------------------------|
F|----------------------------10-------------------------------------|
C|--------------6-------------10------------14h15p14--10/12----------|
G|--0-0-0-0-0---6---0-0-0-0-0--8--0-0-0-0-0--------------------------|
C|--0-0-0-0-0---6---0-0-0-0-0-----0-0-0-0-0--------------------------|
 |  . . . . .       . . . . .     . . . . .                          |
 |Guitar #2 Distorted  3:45-4:16                                     |
D|-------------------------------------------------------------------|
A|-------------------------------------------------------------------|
F|----------------------------10-------------------------------------|
C|--------------6-------------10-------------------------------------|
G|--0-0-0-0-0---6---0-0-0-0-0--8---0-0-0-0-0-10h12p10--7/8-----------|
C|--0-0-0-0-0---6---0-0-0-0-0------0-0-0-0-0-------------------------|
    . . . . .       . . . . .      . . . . .



  Guitar #1 Distorted  3:45-4:16
D|-------------------------------------------------------------------|
A|-------------------------------------------------------------------|
F|---14-14-14-12-12-12-15-15-15-12-12-12-12-12-12-12-12--------------|
C|-------------------------------------------------------------------|
G|-------------------------------------------------------------------|
C|---------------------------------------------------------15\-------|
 |                                                                   |
 |Guitar #2 Distorted  3:45-4:16                                     |
D|-------------------------------------------------------------------|
A|-------------------------------------------------------------------|
F|-------------------------------------------------------------------|
C|-------------------------------------------------------------------|
G|---15-15-15-14-14-14-17-17-17-14-14-14-14-14-14-14-14--------------|
C|---------------------------------------------------------15\-------|




  Guitar #1 Clean  4:16-4:32
D|-------------------------------------------------------------------|
A|-------------------------------------------------------------------|
F|---10--9----10~---10--9---7~----10--9---10/12~---10--9\7--7~-------|
C|-------------------------------------------------------------------|
G|--0---0--00------0---0--00-----0---0--00-------0----0----0---------|
C|-0--------------0-------------0---------------0--------------------|

 |                                                                   |
 |Guitar #2 Distorted/Clean  4:16-4:32                               |
D|-------------------------------------------------------------------|
A|-------------------------------------------------------------------|
F|-------------------------------------------------10--9\7--7~-------|
C|-0~-----------------------0------------------------------------10\-|
G|-0~-----------------------0------------------------------------10\-|
C|-0~-----------------------0------------------------------------10\-|
                            .



  Guitars #1 and #2 Distorted  4:32-4:50
D|-------------------------------------------------------------------|
A|-------------------------------------------------------------------|
F|-------------------------------------------------------------------|
C|---------7-----------7-7---------------7-----------7-7-------------|
G|-0-0-0-0-8---0-0-0-0-8-7-------0-0-0-0-8---0-0-0-0-8-7-7-----------|
C|-0-0-0-0-----0-0-0-0-------10--0-0-0-0-----0-0-0-0-----------------|
 | . . . .     . . . .           . . . .     . . . .                 |
D|-------------------------------------------------------------------|
A|-------------------------------------------------------------------|
F|-------------------------------------------------------------------|
C|---------7----------7-7------------7------------0h10\--------------|
G|---------8----------8-7-7----------8------------0h10\--------------|
C|-0-0-0-0-----0-0-0-0--------0-0-0-0---0-0-0-0---0h10\--------------|
 | . . . .     . . . .        . . . .   . . . .                      |
D|-------------------------------------------------------------------|
A|-------------------------------------------------------------------|
F|-------------------------------------------------------------------|
C|---------7-----------7-7---------------7-----------7-7-------------|
G|-0-0-0-0-8---0-0-0-0-8-7-------0-0-0-0-8---0-0-0-0-8-7-7-----------|
C|-0-0-0-0-----0-0-0-0-------10--0-0-0-0-----0-0-0-0-----------------|
 | . . . .     . . . .           . . . .     . . . .                 |
D|-------------------------------------------------------------------|
A|-------------------------------------------------------------------|
F|-------------------------------------------------------------------|
C|---------7------------7-7--------7p0-5p0-3p0-2p0-2/3/5/7-----------|
G|-0-0-0-0-8---0-0-0-0--8-7------------------------------------------|
C|-0-0-0-0-----0-0-0-0-------10--------------------------------------|
   . . . .     . . . . 



  Guitar #1 Distorted  4:50-5:10
D|-------------------------------------------------------------------|
A|-------------------------------------------------------------------|
F|-------------------------------------------------------------------|
C|---------------------------------------7p0-5p0-8p0-7---------------|
G|--0-0-0-0---0-0-0-0---0-0-0-0--0-0-0-0-----------------------------|
C|--0-0-0-0---0-0-0-0---0-0-0-0--0-0-0-0-----------------------------|
 |  . . . .   . . . .   . . . .  . . . .                             |
 |Guitar #2 Distorted  4:50-5:10                                     |
D|-------------------------------------------------------------------|
A|-------------------------------------------------------------------|
F|-------------------------------------------------------------------|
C|-------------------------------------------------------------------|
G|--0-0-0-0---0-0-0-0---0-0-0-0--0-0-0-0-8p0-7p0-10p0-9--------------|
C|--0-0-0-0---0-0-0-0---0-0-0-0--0-0-0-0-----------------------------|


  Guitar #1 and #2 Distorted  (quick fill between 5:00-5:01)
D|-------------------------------------------------------------------|
A|-------------------------------------------------------------------|
F|-------------------------------------------------------------------|
C|-------------------------------------------------------------------|
G|-0-0-0-0--0---0-0--------------------------------------------------|
C|-0-0-0-0--0---0-0--------------------------------------------------|
   . . . .  .   . .




  Guitar #1  Clean  5:10-END 
D|-------------------------------------------------------------------|
A|-------------------------------------------------------------------|
F|---10--9----10--10--9---7------------------------------------------|
C|-------------------------------------------------------------------|
G|--0---0--00----0---0--00-------------------------------------------|
C|-0------------0----------------------------------------------------|
Guitar #2 Distorted  5:10-END
D|-------------------------------------------------------------------|
A|-------------------------------------------------------------------|
F|-------------------------------------------------------------------|
C|-0~----------------------------------------------------------------|
G|-0~----------------------------------------------------------------|
C|-0~----------------------------------------------------------------|





D|-------------------------------------------------------------------|
A|---Random------------------noises-----------------------------it.--|
F|-------------------------------------------------------------------|
C|-----------------sad-------------------...------------get----------|
G|-------------------------------------------------------------------|
C|--------------------------------------------you'll-----------------|
Tap to rate this tab
 
# A B C D E F G H I J K L M N O P Q R S T U V W X Y Z