Bullet For My Valentine - The Last Fight tab

Artist: Bullet For My Valentine
Song: The Last Fight
Album: Fever
Year: 2010

Tabbed by Thommoboy
Email: lambofgod2009@live.com.au

Anything wrong, Email or comment.

Key:

~ - Let Ring
* - Pinched Harmonic
\ - Slide down
/ - Slide up



Guitar 1 and 2 - Matt and Padge
D--------------------------------------------------------------|
A------------------------------------------------------7*----9*|
F-9999-9999-9999-9999-5-7-9999-9999-9999-9999-5-7--------------|
C-9999-9999-9999-9999-5-7-9999-9999-9999-9999-5-7----5-----7---|
G-7777-7777-7777-7777-3-5-7777-7777-7777-7777-3-5--33-3--55-5--|
C--------------------------------------------------------------|

D--------------------------------------------------------------|
A------------------------------------------------------7*----9*|
F-9999-9999-9999-9999-5-7-9999-9999-9999-9999-5-7--------------|
C-9999-9999-9999-9999-5-7-9999-9999-9999-9999-5-7----5-----7---|
G-7777-7777-7777-7777-3-5-7777-7777-7777-7777-3-5--33-3--55-5--|
C--------------------------------------------------------------|

Guitar 1 - Matt
D---------|
A---------|
F---------|
C---------|
G-14\0----|
C-14\0----|

Guitar 1 - Matt
D--------------------------|
A--------------------------|
F--------------------------|
C--------------------------|
G-2~~~~~~~~~~~~~~~~~~~~~~~~|
C-2~~~~~~~~~~~~~~~~~~~~~~~~|

Guitar 2 - Padge
D--------------------------|
A--------------------------|
F--------------------------|
C--------------------------|
G---------2-2-2-2-2-2-2-555|
C---------2-2-2-2-2-2-2-555|

Guitar 1 - Matt
D-----------------------------------------------------|
A-----------------------------------------------------|
F-----------------------------------------------------|
C-----------------------------------------------------|
G-22-22-22-00122-22-22-22-577-77-77-77-77-77-7522-----|
C-22-22-22-00122-22-22-22-577-77-77-77-77-77-7522-----|

Guitar 2 - Padge

D------------------------------------------------------|
A------------------------------------------------------|
F---9--9--9-----9--9--9--9---7--7--7--7--7--7----------|
C---9--9--9-----9--9--9--9---7--7--7--7--7--7----------|
G---7--7--7-----7--7--7--7---5--5--5--5--5--5----------|
C------------------------------------------------------|

Guitar 1 - Matt
D-----------------------------------------------------|
A-----------------------------------------------------|
F-----------------------------------------------------|
C-----------------------------------------------------|
G-22-22-22-00122-22-22-22-577-77-77-77-77-77-7522-----|
C-22-22-22-00122-22-22-22-577-77-77-77-77-77-7522-----|

Guitar 2 - Padge

D------------------------------------------------------|
A------------------------------------------------------|
F---9--9--9-----9--9--9--9---7--7--7--7--7--7----------|
C---9--9--9-----9--9--9--9---7--7--7--7--7--7----------|
G---7--7--7-----7--7--7--7---5--5--5--5--5--5----------|
C------------------------------------------------------|


Guitar 2 - Padge
D--------------------------------------------------------------|
A--------------------------------------------------------------|
F--------------------------------------------------------------|
C-5555555444555-5555555444555-9999999888999-7777777666777------|
G-3333333333333-3333333333333-7777777777777-5555555555555------|
C--------------------------------------------------------------|

D--------------------------------------------------------------|
A--------------------------------------------------------------|
F--------------------------------------------------------------|
C-5555555444555-5555555444555-7777777666777--------------------|
G-3333333333333-3333333333333-5555555555555--------------------|
C--------------------------------------------------------------|

Guitar 1 and 2 - Matt and Padge
D--------------------------------------------------------------|
A------------------------------------------------------7*----9*|
F-9999-9999-9999-9999-5-7-9999-9999-9999-9999-5-7--------------|
C-9999-9999-9999-9999-5-7-9999-9999-9999-9999-5-7----5-----7---|
G-7777-7777-7777-7777-3-5-7777-7777-7777-7777-3-5--33-3--55-5--|
C--------------------------------------------------------------|

D--------------------------------------------------------------|
A------------------------------------------------------7*----9*|
F-9999-9999-9999-9999-5-7-9999-9999-9999-9999-5-7--------------|
C-9999-9999-9999-9999-5-7-9999-9999-9999-9999-5-7----5-----7---|
G-7777-7777-7777-7777-3-5-7777-7777-7777-7777-3-5--33-3--55-5--|
C--------------------------------------------------------------|

Guitar Solo

Guitar 1 - Matt

D-15h19p15----15----------15-19-0-17-0-15-0-14-0-|
A----------17----17----17------------------------|
F-------------------16---------------------------|
C------------------------------------------------|
G------------------------------------------------|
C------------------------------------------------|


D-14h17p14----14----------14-17-0-15-0-14-0-12-0-|
A----------15----15----15------------------------|
F-------------------14---------------------------|
C------------------------------------------------|
G------------------------------------------------|
C------------------------------------------------|


D-12h15p12----12----------12-15-0-14-0-12-0-11-0-|
A----------13----13----13------------------------|
F-------------------12---------------------------|
C------------------------------------------------|
G------------------------------------------------|
C------------------------------------------------|


D-11h14p11----11-------------------------11-14-15-14-|
A----------12----12----12-------------12-------------|
F-------------------11----11-------11----------------|
C-------------------------------13-------------------|
G----------------------------14----------------------|
C----------------------------------------------------|

D-15h19p15----15----------15-19-0-17-0-15-0-14-0-|
A----------17----17----17------------------------|
F-------------------16---------------------------|
C------------------------------------------------|
G------------------------------------------------|
C------------------------------------------------|


D-14h17p14----14----------14-17-0-15-0-14-0-12-0-|
A----------15----15----15------------------------|
F-------------------14---------------------------|
C------------------------------------------------|
G------------------------------------------------|
C------------------------------------------------|


D-12h15p12----12----------12-15-0-14-0-12-0-11-0-|
A----------13----13----13------------------------|
F-------------------12---------------------------|
C------------------------------------------------|
G------------------------------------------------|
C------------------------------------------------|


D-11h14p11----11-------------------------11-14-15-|
A----------12----12----12-------------12----------|
F-------------------11----11-------11-------------|
C-------------------------------13----------------|
G----------------------------14-------------------|
C-------------------------------------------------|

Guitar 2 - Padge

D---------------------------------------------------|
A---------------------------------------------------|
F-------------9~~-----------5~~---------------------|
C-------------9~~-----------5~~---------------------|
G-------------7~~-----------3~~---------------------|
C---------------------------------------------------|


D---------------------------------------------------|
A---------------------------------------------------|
F----7~~--------------------4~~---------------------|
C----7~~--------------------4~~---------------------|
G----5~~--------------------2~~---------------------|
C---------------------------------------------------|


D---------------------------------------------------|
A---------------------------------------------------|
F---5~---------------------2~~----------------------|
C---5~---------------------2~~----------------------|
G---3~---------------------0~~----------------------|
C---------------------------------------------------|


D----------------------------------------------------|
A----------------------------------------------------|
F---4~~~~--------------------------------------------|
C---4~~~~--------------------------------------------|
G---2~~~~--------------------------------------------|
C----------------------------------------------------|


D-19h22p19----19----------19-22-0-20-0-19-0-17-0-|
A----------20----20----20------------------------|
F-------------------19---------------------------|
C------------------------------------------------|
G------------------------------------------------|
C------------------------------------------------|


D-17h20p17----17----------17-20-0-19-0-17-0-15-0-|
A----------19----19----19------------------------|
D-------------------17---------------------------|
C------------------------------------------------|
G------------------------------------------------|
C------------------------------------------------|


D-15h19p15----15----------15-19-0-17-0-15-0-14-0-|
A----------17----17----17------------------------|
F-------------------16---------------------------|
C------------------------------------------------|
G------------------------------------------------|
C------------------------------------------------|


D-14h17p14----14----------------------------17-19-20-|
A----------16----16----16-------------16-19----------|
F-------------------14----14-------16----------------|
C-------------------------------16-------------------|
G----------------------------17----------------------|
C----------------------------------------------------|


PreChorus Part
Guitar 1 - Matt

D-15~~---14-14-15-14~~---12-12-14-12~~---7-7-10-7~~-|
A---------------------------------------------------|
F---------------------------------------------------|
C---------------------------------------------------|
G---------------------------------------------------|
C---------------------------------------------------|

Guitar 2 - Padge
D-19~~---17-17-19-17~~---15-15-17-15~~---12-12-15-12~~-|
A------------------------------------------------------|
F------------------------------------------------------|
C------------------------------------------------------|
G------------------------------------------------------|
C------------------------------------------------------|

Guitar 2 - Padge
D--------------------------------------------------------------|
A--------------------------------------------------------------|
F--------------------------------------------------------------|
C-5555555444555-5555555444555-9999999888999-7777777666777------|
G-3333333333333-3333333333333-7777777777777-5555555555555------|
C--------------------------------------------------------------|

D--------------------------------------------------------------|
A--------------------------------------------------------------|
F--------------------------------------------------------------|
C-5555555444555-5555555444555-7777777666777--------------------|
G-3333333333333-3333333333333-5555555555555--------------------|
C--------------------------------------------------------------|

Guitar 1 and 2 - Matt and Padge
D--------------------------------------------------------------|
A------------------------------------------------------7*----9*|
F-9999-9999-9999-9999-5-7-9999-9999-9999-9999-5-7--------------|
C-9999-9999-9999-9999-5-7-9999-9999-9999-9999-5-7----5-----7---|
G-7777-7777-7777-7777-3-5-7777-7777-7777-7777-3-5--33-3--55-5--|
C--------------------------------------------------------------|

D--------------------------------------------------------------|
A------------------------------------------------------7*----9*|
F-9999-9999-9999-9999-5-7-9999-9999-9999-9999-5-7--------------|
C-9999-9999-9999-9999-5-7-9999-9999-9999-9999-5-7----5-----7---|
G-7777-7777-7777-7777-3-5-7777-7777-7777-7777-3-5--33-3--55-5--|
C--------------------------------------------------------------|

OUTRO

D-----------------------------------------------------------------|
A-----------------------------------------------------------------|
F-----------------------------------------------------------------|
C-------5-------5-------5---------------5-------5-------5---------|
G---------------------------0-2-5---------------------------0-2-5-|
C-2~--2---2-2-2---2-2-2---2-0-2-5-2~--2---2-2-2---2-2-2---2-0-2-5-|
                            . . .                           . . .


D-----------------------------------------------------------------|
A-----------------------------------------------------------------|
F-----------------------------------------------------------------|
C-------5-------5-------5---------------5-------5-------5---------|
G---------------------------0-2-5---------------------------0-2-5-|
C-2~--2---2-2-2---2-2-2---2-0-2-5-2~--2---2-2-2---2-2-2---2-0-2-5-|
                            . . .                           . . .


D-----------------------------------------------------------------|
A-----------------------------------------------------------------|
F-----------------------------------------------------------------|
C-------5-------5-------5---------------5-------5-------5---------|
G---------------------------0-2-4---------------------------0-2-4-|
C-2~--2---2-2-2---2-2-2---2-0-2-4-2~--2---2-2-2---2-2-2---2-0-2-4-|


D-----------------------------------------------------------------|
A-----------------------------------------------------------------|
F-----------------------------------------------------------------|
C-------5-------5-------5---------------5-------5-------5---------|
G---------------------------0-2-4---------------------------0-2-4-|
C-2~--2---2-2-2---2-2-2---2-0-2-4-2~--2---2-2-2---2-2-2---2-0-2-4-|


D----------------|
A----------------|
F----------------|
C----------------|
G-2--2-----------|
C-2--2--2-4-5-2v-|
  .  .

Guitar 2 - Padge

D-----------------------------------------------------------------|
A-----------------------------------------------------------------|
F-----------------------------------------------------------------|
C-2-------------------------------2\\-----------------------------|
G-2-------------------------0-2-5-2\\-----------------------0-2-5-|
C-2-------------------------0-2-5-2\\-----------------------0-2-5-|
                            . . .                           . . .


D-----------------------------------------------------------------|
A-----------------------------------------------------------------|
F-----------------------------------------------------------------|
C-2\\-----------------------------2\\-----------------------------|
G-2\\-----------------------0-2-5-2\\-----------------------0-2-5-|
C-2\\-----------------------0-2-5-2\\-----------------------0-2-5-|
                            . . .                           . . .


D-----------------------------------------------------------------|
A-----------------------------------------------------------------|
F-----------------------------------------------------------------|
C-2~--2---2~--2---2~--2---2-0-2-4-2~--2---2~--2---2~--2---2-0-2-4-|
G-2~--2---2~--2---2~--2---2-0-2-4-2~--2---2~--2---2~--2---2-0-2-4-|
C-2~--2---2~--2---2~--2---2-0-2-4-2~--2---2~--2---2~--2---2-0-2-4-|


D-----------------------------------------------------------------|
A-----------------------------------------------------------------|
F-----------------------------------------------------------------|
C-2~--2---2~--2---2~--2---2-0-2-4-2~--2---2~--2---2~--2---2-0-2-4-|
G-2~--2---2~--2---2~--2---2-0-2-4-2~--2---2~--2---2~--2---2-0-2-4-|
C-2~--2---2~--2---2~--2---2-0-2-4-2~--2---2~--2---2~--2---2-0-2-4-|


D----------------|
A----------------|
F----------------|
C----------------|
G-2--2-----------|
C-2--2--2-4-5-2v-|
Tap to rate this tab
 
# A B C D E F G H I J K L M N O P Q R S T U V W X Y Z