Bullet For My Valentine - Waking The Demon tab

waking the demon solo
by bullet for my valentine
solo done by michael paget
tuning drop C :note:i did learn the solo from another tab this one is just the way i saw 
do it
e|-----------17Fb-21-17-16-17-16---------------------------------------------|
B|17Hb--14------------------------17-----------------------------------------|
G|-----------------------------------16-14v----------------------------------|
D|---------------------------------------------------------------------------|
A|---------------------------------------------------------------------------|
E|---------------------------------------------------------------------------|

e|--------------------------------------------------------------------19Fbr19--|
B|----------------------------------------------15-----15-17----15-17----------|
G|------------14-------14-16--14-16-18-14-16-18---16-18------18----------------|
D|18-14-16-18-----16-18-----18-------------------------------------------------|
A|-----------------------------------------------------------------------------|
E|-----------------------------------------------------------------------------|


e|17-19-17-16-17-16----16-------17t14-8x-16t13-8x----------------------------|
B|------------------19-------------------------------------------------------|
G|------------------------18v------------------------------------------------|
D|---------------------------------------------------------------------------|
A|---------------------------------------------------------------------------|
E|---------------------------------------------------------------------------|

e|---------------------------------------------------------------------------|
B|-15-14-----14-12----12-10----10-9----9-7-----------------------------------|
G|-------16--------14-------13------11----(9)w-------------------------------|
D|---------------------------------------------------------------------------|
A|---------------------------------------------------------------------------|
E|---------------------------------------------------------------------------|

e|-9p5---5-9p5-9p5---5-9p5-9p5---7p4-4-7p4-7p4---4-7p4-7p4-------------------------|
B|-----7-----------7-----------7----5----------5-----------5-----------------------|
G|---------------------------------------------------------------------------------|
D|---------------------------------------------------------------------------------|
A|---------------------------------------------------------------------------------|
E|---------------------------------------------------------------------------------|


e|/12p9----9-12p9-12p9----9-12p9-12p9---9-\7p4---4-7p4-7p4--4-7p4-7p4-5p4---4---------|
B|------10-------------10------------10--------5-----------5--------------7-----------|
G|------------------------------------------------------------------------------------|
D|------------------------------------------------------------------------------------|
A|------------------------------------------------------------------------------------|
E|------------------------------------------------------------------------------------|


e|-9p5---5-9p5-9p5---5-9p5-9p5---7p4-4-7p4-7p4---4-7p4-7p4-------------------------|
B|-----7-----------7-----------7----5----------5-----------5-----------------------|
G|---------------------------------------------------------------------------------|
D|---------------------------------------------------------------------------------|
A|---------------------------------------------------------------------------------|
E|---------------------------------------------------------------------------------|

e|/12p9----9-12p9-12p9----9-12p9-12p9---12Fb---------------------------------|
B|------10-------------10------------10--------------------------------------|
G|---------------------------------------------------------------------------|
D|---------------------------------------------------------------------------|
A|---------------------------------------------------------------------------|
E|---------------------------------------------------------------------------|
~Fb-full bend
~Hb-half bend
~t-tap
~v-vibrato
~/-slide up
~\-slide down
~w-whammy
~()-harmonic
the harmonic in the solo you can either hit the note and dive bomb down and bring it up
catch the harmonic or you can hit the note then hit the harmonic and push down the
behind the nut of the neck if you dont have a flyod rose whammy bar haha hope you enjoy 
tab its my first one and i learned it from a michael paget video so its dead on correct
free to correct me if i messed up though um but yeah thanks and peace
Tap to rate this tab
 
# A B C D E F G H I J K L M N O P Q R S T U V W X Y Z