Bullet For My Valentine - Her Voice Resides tab

===============================================================================
Hey all my fellow guitarists out there, this is my first tab, what a great song 
for my first tab! Anyways I think it is 100% correct, but if there are any 
errors please let me know. Just listen to the song and you can work out the 
tempo and beat. Cheers
===============================================================================

D|-----------------------------------------------------|
A|-----------------------------------------------------|
F|-------------------10h12p10-12p10h12-----------------|
C|----------10h11h12-----------------------------------|
G|-10h11h12--------------------------------------------|
C|-----------------------------------------------------|

D|-----------------------------------------------------|
A|-----------------------------------------------------|
F|-12b14-r12p10----10h12p10h12p10h12p9h10p9h10p9h10----|
C|--------------12----------------------------------12-|
G|-----------------------------------------------------|
C|-----------------------------------------------------|

      x3      x3       x3
D|-10h13t17-8h12t15-6h10t13-16r14----------------------|
A|-----------------------------------------------------|
F|-----------------------------------------------------|
C|-----------------------------------------------------|
G|-----------------------------------------------------|
C|-----------------------------------------------------|

D|-----------------------------------------------------|
A|----------11-10--------------------------------------|
F|-10v-9----------9v-----------------------------------|
C|-------7v--------------------------------------------|
G|-----------------------------------------------------|
C|-----------------------------------------------------|

D|-----------------------------------------------------|
A|--------------------8b10r8-6-------------------------|
F|-10-9----7---10-9------------9-----------------------|
C|------10---7------------------10---------------------|
G|-----------------------------------------------------|
C|-----------------------------------------------------|

x4           x4          x3
D|-t17p13p10h13-t18p13p10h13-t20p13p10h13-t20p10-------|
A|-----------------------------------------------------|
F|-----------------------------------------------------|
C|-----------------------------------------------------|
G|-----------------------------------------------------|
C|-----------------------------------------------------|

D|-----------------------------------------------------|
A|-10-10-8-8-11-11-8-8---------------------------------|
F|-----------------------------------------------------|
C|-----------------------------------------------------|
G|-----------------------------------------------------|
C|-----------------------------------------------------|

Legend:

h = hammer on
p = pull off
v = vibrato
b = bend
r = release
t = tap
Tap to rate this tab
 
# A B C D E F G H I J K L M N O P Q R S T U V W X Y Z