Song name
# A B C D E F G H I J K L M N O P Q R S T U V W X Y Z

Bullet For My Valentine - Waking The Demon tab

This is how it's played.  Period.
Tuning is Drop C, from low to high: CGCFAD.

                                       
D|---------------17b19-----17-21-17-16---------------|
A|-17b19r17--14------------------------17------------|
F|----------------------------------------16---14~~~-|
C|---------------------------------------------------|
G|---------------------------------------------------|
C|---------------------------------------------------|

D|---------------------------------------------------|
A|---------------------------------------------------|
F|-------------14-------14-16----14-16-18-14-16-18---|
C|-18-14-16-18----16-18-------18---------------------|
G|---------------------------------------------------|
C|---------------------------------------------------|

D|--------------------------19b21r19~~~------|
A|-15-------15-17----15-17------0------------|
F|----16-18-------18-------------------------|
C|-------------------------------------------|
G|-------------------------------------------|
C|-------------------------------------------|

D|-17h19p17\16-17p16---16-----t17p14(x8)-t16p13(x8)|
A|-------------------19----------------------------|
F|------------------------17~~---------------------|
C|-------------------------------------------------|
G|-------------------------------------------------|
C|-------------------------------------------------|

D|------------------------------------------------|
A|-15p14----14\12----12\10----10\9----9\7---------|
F|-------16-------14-------13------11-----9-------|
C|------------------------------------------------|
G|------------------------------------------------|
C|------------------------------------------------|

Note afterward is unknown to me, but it is a harmonic lifted up with a whammy bar.

Harmony (Lead):
----------------------------------------------
! Play each form once unless directed otherwise. !
-----------------------------------------------
The switches are immediate, I just wanted to make the tab a little neater.
Maybe a little easier to read,
rather than trying to fit all of the same pattern of notes
with different notes themselves on one bit of tab.
It would be messy and obnoxious.

Form One
D|-9p5---5-9p5-9p5---5-9p5-9p5---5---|
A|-----7-----------7-----------7-----|
F|-----------------------------------|
C|-----------------------------------|
G|-----------------------------------|
C|-----------------------------------|

Switch to:

Form Two
D|-7p4---4-7p4-7p4---4-7p4-7p4---7---|
A|-----5-----------5-----------5-----|
F|-----------------------------------|
C|-----------------------------------|
G|-----------------------------------|
C|-----------------------------------|

Switch to:

Form Three
D|-12p9----9-12p9-12p9----9-12p9-12p9----9---|
A|------10-------------10-------------10-----|
F|-------------------------------------------|
C|-------------------------------------------|
G|-------------------------------------------|
C|-------------------------------------------|

Switch to:

Form Four (This is almost the same as Form Two, but with a different tail)
D|-7p4---4-7p4-7p4---4-7p4-5p4---4---|
A|-----5-----------5-----------7-----|
F|-----------------------------------|
C|-----------------------------------|
G|-----------------------------------|
C|-----------------------------------|

Repeat Form One

Repeat Form Two

Switch To:

Form Five (This is almost the same as Form Four, but with a different tail)
D|-12p9---9-12p9-12p9---9--12p9-12b14------------------------|
A|------7-------------7--------------------------------------|
F|-----------------------------------------------------------|
C|-----------------------------------------------------------|
G|-----------------------------------------------------------|
C|-----------------------------------------------------------|

End of Solo

LEGEND
------
h = Hammer On
p = Pull Off
b = Bend
r = Release Bend
* = Pinch Harmonic
~ = Vibrato 
t = Tap

Message me if you have Questions.  Thank you.
Tap to rate this tab
 
# A B C D E F G H I J K L M N O P Q R S T U V W X Y Z