Song name
# A B C D E F G H I J K L M N O P Q R S T U V W X Y Z

Bullet For My Valentine - Bittersweet Memories tab

By Karmelo494

Bittersweet Memories
Fever
Bullet For My Valentine
 
*(Palm Muted)
~(Sustain)
INTRO x2
D[--------------------------------------------------------]
A[--------------------------------------------------------]
F[-12-14-10-12---12-14-10-9---12-14-12-14hb--12-14-10-9-14]
C[--------------------------------------------------------]
G[--------------------------------------------------------]
C[--------------------------------------------------------]

VERSE x4
D[-----0-----------0-----------0---0-----------------]
A[--6-6-6-------6-6-6-------6-6-6---6----------------]
F[-5-5---5-----5-5---5-----5-5---5---5---------------]
C[---------------------------------------------------]
G[---------------------------------------------------]
C[---------------------------------------------------]

PRE-CHORUS
D[-----------------------------------------------------------]
A[(x8 times)-----(x5 times)----------------------------------]
F[10-------------9--------10-10-10-10-10-10--5-5-5/7\5-5-5/7-]
C[-x-----------0-x---------x--x--x--x--x--x--x-x-x-x-x-x-x/x-]
G[-8-------0-0-0-7---------8--8--8--8--8--8--3-3-3/5\3-3-3/5-]
C[---------0-0-0---------------------------------------------]
           * *

CHORUS X2
D[------------------------------------------------------------------]
A[------------------------------------------------------------------]
F[------------------------------------------------------------------]
C[-3-3-3-3-3-3-3-3-3-3-3-3-3-3-3-0-0-0-0-0-0-0-0-0-8-8-8-8-8-8-8-8-8]
G[-3-3-3-3-3-3-3-3-3-3-3-3-3-3-3-0-0-0-0-0-0-0-0-0-8-8-8-8-8-8-8-8-8]
C[-3-3-3-3-3-3-3-3-3-3-3-3-3-3-3-0-0-0-0-0-0-0-0-0-8-8-8-8-8-8-8-8-8]

VERSE

I wanna run and escape from your prison
But when I leave I feel something is missin'
I'm not afraid that's easy to tell
This can't be heaven, it feels like I'm in hell
You're like the drug that I can't stop taking
I want more and I can't stop craving
I still want you it's easy to see
But guess what honey your not that good for me

PRE-CHORUS

We get so complicated (Complicated)
These fingers for our memories

CHORUS x2

So rip my pictures from your wall
Tear them down and burn them all
Light the fire and walk away
There's nothing left to say, so
Take the ashes from the floor
Bury them to just make sure
That nothing more is left of me
Just bittersweet memories

SOLO/BRIDGE x2
D[-------------------------------------------------------------------------------------------]
A[5-5-5-5-5-5-5-6-6-6-5-5-5-5-5-5-5-6-6-6-3-3-3-3-3-3-10-10-10-11-11-11-8-8-8-10-10-10-6-6-6-]
F[7-7-7-7-7-7-7-------7-7-7-7-7-7-7-------5-5-5-5-5-5----------------------------------------]
C[-------------------------------------------------------------------------------------------]
G[-------------------------------------------------------------------------------------------]
C[-------------------------------------------------------------------------------------------]

D[-----------------------------------------------------------------------------------]
A[5-5-5-5-5-5-5-6-6-6-5-5-5-5-5-5-5-6-6-6-3-3-3-3-3-3-10-11-10-8-10-8-6-8-6-5-6-8-6~-]
F[7-7-7-7-7-7-7-------7-7-7-7-7-7-7-------5-5-5-5-5-5--------------------------------]
C[-----------------------------------------------------------------------------------]
G[-----------------------------------------------------------------------------------]
C[-----------------------------------------------------------------------------------]

PRE-CHORUS

We get so complicated (Complicated)
These fingers for our memories

SOLO/BRIDGE x1

CHORUS x5

So rip my pictures from your wall
Tear them down and burn them all
Light the fire and walk away
There's nothing left to say, so
Take the ashes from the floor
Bury them to just make sure
That nothing more is left of me
Just bittersweet memories

OUTRO 
D[-----------------------------------------------------------]
A[-----------------------------------------------------------]
F[-12-14-10-12---12-14-10-9---12-14-12-14hb--12-14-10-9-14~~~]
C[-----------------------------------------------------------]
G[-----------------------------------------------------------]
C[-----------------------------------------------------------]



My First Tab PLZ Comment :)
Tap to rate this tab
 
# A B C D E F G H I J K L M N O P Q R S T U V W X Y Z