Song name
# A B C D E F G H I J K L M N O P Q R S T U V W X Y Z

Bullet For My Valentine - Road To Nowhere tab

Intro x2

e----------------------------------------------------------------3----3/5\3-|
a-----------------------------------------------------------3-----3---------|
d---0---------------2---------------4-------4h5p4---------0--0-----0--------|
g-----0---------------0---------------2---2-------7-----2------2----2-------|
b-------2h3p2p0---------2h3p2p0----------------------3----------------------|
e-3---------------2---------------0-----------------------------------------|

Verse
e----------------------------------------------------------------------------|
a----------0---------------------0-----------------------0-------------------|
d-0------0---0-----0------2----2---2-----4--2--0-------0---0---0-------------|
g-----0--------0-----0-------0-------0------------2--2------2----2-----------|
b---2---2--------2-----2----0-0--------0------------2-2------2-----2---------|
e-3-----------------------2-----------------------0--------------------------|

e----------------3---------3/5\3--------------------------------|
a-------------3----3--------------------------------------------|
d--0-----0-----------0------------------------------------------|
g-----2-----2----------2----------------------------------------|
b--3------------------------------------------------------------|
e---------------------------------------------------------------|

chorus
e--3-------3-------3-----3-|
a--3-------3-------3-----3-|
d--0-------2-------0-----0-|
g--0-------0-------2-----2-|
b--2-------0-------2-----3-|
e--3-------2-------0-------|

bridge
e---0--------0------0---------------|
a---1--------1------1---------------|
d---2--------0------2------2------4-|
g---2--------2------2------3------5-|
b---0--------3------0------3------5-|
e--------------------------1------3-|



h = hammer on
p = pull off
/ = slide up
\ = slide down


NOT SURE HOW TO DO THE STRUMMING PATTERN SO U GOTTA FIGURE IT OUR YOURSELF HAHA :)
Tap to rate this tab
 
# A B C D E F G H I J K L M N O P Q R S T U V W X Y Z