Song name
# A B C D E F G H I J K L M N O P Q R S T U V W X Y Z

Bullet For My Valentine - Your Betrayal Acoustic tab

Okay.
No tabs are up for this version yet.
They did an acoustic version live on BBC.
It's in DROP D.
Here's what I have so far, Hopefully I'll have it finished soon.
Main Riff
E|----------------------------------------------------------------------------|
B|--------------------6---------6---------------------6------6----------------|
G|------------------7---------7---------------------7------7------------------|
D|----------------7--------7--------3----2--------7------7----3----2----------|
A|--/7-5-3-2---5--------5------------5-3--3-----5------5-------5-3--3-----0---|
D|---0-0-0-0-0------------------------------3-------------------------3---0---|


BRIDGE-

E|----------------------------------------------------------------------------|
B|---10---10---10---10----11---11----11----11---8----8---8---8--10--10--10----|
G|-----10----10---10---10----10---10---10----10---10--10--10--10--10--10--10--|
D|----------------------------------------------------------------------------|
A|----------------------------------------------------------------------------|
D|----------------------------------------------------------------------------|

That's all I have. The only part left is the chorus (I think)
That part's a little trickier. So I'll try it later. Here's most of the song though for 
now. :D Have fun!
Tap to rate this tab
 
# A B C D E F G H I J K L M N O P Q R S T U V W X Y Z