Song name
# A B C D E F G H I J K L M N O P Q R S T U V W X Y Z

Bullet For My Valentine - Take It Out On Me tab

Hi, this is my first tab so sorry for the mistakes.

h=Hammer
p=pull
*=palm mute
Tuning=(e-B-G-D-A-D)
Enjoy !!!

e|---------------------------------------------------------------------|
B|---------------------------------------------------------------------|
G|---------------------------------------------------------------------|
D|---------------------------------------------------------------------|
A|---0----5p3h5p3p0---0----5p3h5p3p0----0----5p3h5p3p0---6-5-3-0-------|
D|---0----------------0-----------------0-------------------------8-7-5|(x6)

e|---------------------------------------------------------------------|
B|---------------------------------------------------------------------|
G|---------------------------------------------------------------------|
D|---2---2p0h2p0---2---2p0h2p0---2---2p0h2p0---3-2-0-------------------|
A|---2-------------2-------------2--------------------0-3-2-0----------|
D|---2-------------2-------------2-------------------------------------|

e|---------------------------------------------------------------------|
B|---------------------------------------------------------------------|
G|-----------------------------------3-----------3---------------------|
D|-----------------------------------3---2---3---3---------3---0-------|
A|---0---5p3h5p3p0---0---5p3h5p3p0---1---0---3---1---3-3---3---0-------|
D|---0---------------0-----------------------3-------3-3---3---0-------|
                                                     * *
Tap to rate this tab
 
# A B C D E F G H I J K L M N O P Q R S T U V W X Y Z