Song name
# A B C D E F G H I J K L M N O P Q R S T U V W X Y Z

Bullet For My Valentine - The Last Fight tab

Hi again, im so lazy that all my tabs are only intros XD
P=pull
h=Hammer
*=Palm Mute

Enjoy !!!

e|------------------------------------------------|
B|------------------------------------------------|
G|---7--------7--------7--------7--------3------5-|
D|---7--------7--------7--------7--------3------5-|
A|---5--5555--5--5555--5--5555--5--0000--1--00--3-|
D|------------------------------------------------|(x2)

e|-----------1----------3|
B|-----------------------|
G|-------3----------5----|
D|-----3---3------5---5--|
A|---1----------3--------|
D|-----------------------|
Tap to rate this tab
 
# A B C D E F G H I J K L M N O P Q R S T U V W X Y Z