Song name
# A B C D E F G H I J K L M N O P Q R S T U V W X Y Z

Bullet For My Valentine - Your Betrayal Acoustic tab

-------------------------------------------------------------------------------
			     YOUR BETRAYAL (ACOUSTIC) - Bullet For My Valentine.
-------------------------------------------------------------------------------

Tabbed by: mariewong.





Tuning: Drop D.





INTRO [00:02]

Guitar 1:

e|----------------------------|
B|----------------------------|
G|----------------------------|
D|----------------------------|
A|--/8-----7-----5-----3------|
D|-----(0)---(0)---(0)---(0)--|

Guitar 2:

e|----------------------------|
B|----------------------------|
G|----------------------------|
D|--/7-----5-----3-----2------|
A|----------------------------|
D|------0-----0-----0-----0---|




VERSE [00:04]

Guitar 1:

e|--------1~----------1~-----------------|
B|------3-----------3--------------------|
G|----2-----------2----------------------|
D|--------------------------3-----2------|   [x2]
A|----------------------------5-3---3----|
D|--0-----------0---------------------3--|

Guitar 2:

e|---------------------------------------|
B|---------------------------------------|
G|---------------------------------------|
D|------0-3~--------0-3~----3-----2------|   [x2]
A|----0-----------0-----------5-3---3----|
D|--0-----------0---------------------3--|



Guitar 1:

e|--------5~----------5~-----------------|
B|------6-----------6--------------------|
G|---------------------------------------|
D|----7-----------7---------/7-----5-2---|   [x2]
A|-----------------------------8-7-------|
D|--0-----------0---------------------3--|

Guitar 2:

e|---------------------------------------|
B|---------------------------------------|
G|--------2~----------2~-----------------|
D|------3-----------3-------3-----2------|   [x2]
A|----0-----------0-----------5-3---3----|
D|--0-----------0---------------------3--|




PRE-CHORUS [00:36]

Guitar 1:

e|-----------------------------------------------------------|
B|-----------------------------------------------------------|
G|-----------------------------------------------------------|
D|------------------------------5------5------5----------3~--|
A|--------------------------------7-0----7-0-----7-------5~--|
D|--0~---------------------------------------------------0~--|

Guitar 2:

e|------------------------------------------------------------|
B|------------------------------------------------------------|
G|--777-777-77----999-999-99----121212-121212-12-1212----10~--|
D|--000-000-00----000-000-00-----0-0-0--0-0-0--0--0-0-----0~--|
A|------------------------------------------------------------|
D|------------------------------------------------------------|




CHORUS [00:43]

Guitar 1:

e|----------5--------|          |----------1--------|          |----------3--------|
B|------6-----6------|          |------1-----1------|          |------3-----3------|
G|--------7-----7----|          |--------3-----3----|          |--------5-----5----|
D|----7-----------7--|   [x4]   |----3-----------3--|   [x2]   |----5-----------5--|   [x2]
A|--5----------------|          |--1----------------|          |--3----------------|
D|-------------------|          |-------------------|          |-------------------|

Guitar 2:

e|-------------------|          |----------1--------|          |----------3--------|
B|----------6--------|          |------1-----1------|          |------3-----3------|
G|------7-----7------|          |--------3-----3----|          |--------5-----5----|
D|--------7-----7----|   [x4]   |----3-----------3--|   [x2]   |----5-----------5--|   [x2]
A|----5-----------5--|          |--1----------------|          |--3----------------|
D|--0----------------|          |-------------------|          |-------------------|



Guitar 1:

e|----------5--------|          |----------1--------|          |----------3--------|
B|------6-----6------|          |------1-----1------|          |------3-----3------|
G|--------7-----7----|          |--------3-----3----|          |--------5-----5----|
D|----7-----------7--|   [x4]   |----3-----------3--|   [x2]   |----5-----------5--| 
A|--5----------------|          |--1----------------|          |--3----------------|
D|-------------------|          |-------------------|          |-------------------|

Guitar 2:

e|-------------------|          |----------1--------|          |----------3--------|
B|----------6--------|          |------1-----1------|          |------3-----3------|
G|------7-----7------|          |--------3-----3----|          |--------5-----5----|
D|--------7-----7----|   [x4]   |----3-----------3--|   [x2]   |----5-----------5--|   
A|----5-----------5--|          |--1----------------|          |--3----------------|
D|--0----------------|          |-------------------|          |-------------------|




PRE-VERSE [01:13]

Guitar 1:

e|----------------------------|
B|----------------------------|
G|----------------------------|
D|----------------------------|
A|--/8-----7-----5-----3------|
D|-----(0)---(0)---(0)---(0)--|

Guitar 2:

e|----------------------------|
B|----------------------------|
G|----------------------------|
D|--/7-----5-----3-----2------|
A|----------------------------|
D|------0-----0-----0-----0---|




VERSE [01:15]

Guitar 1:

e|--------1~----------1~-----------------|
B|------3-----------3--------------------|
G|----2-----------2----------------------|
D|--------------------------3-----2------|   [x2]
A|----------------------------5-3---3----|
D|--0-----------0---------------------3--|

Guitar 2:

e|---------------------------------------|
B|---------------------------------------|
G|---------------------------------------|
D|------0-3~--------0-3~----3-----2------|   [x2]
A|----0-----------0-----------5-3---3----|
D|--0-----------0---------------------3--|



Guitar 1:

e|--------5~----------5~-----------------|
B|------6-----------6--------------------|
G|---------------------------------------|
D|----7-----------7---------/7-----5-2---|   [x2]
A|-----------------------------8-7-------|
D|--0-----------0---------------------3--|

Guitar 2:

e|---------------------------------------|
B|---------------------------------------|
G|--------2~----------2~-----------------|
D|------3-----------3-------3-----2------|   [x2]
A|----0-----------0-----------5-3---3----|
D|--0-----------0---------------------3--|




PRE-CHORUS [01:47]

Guitar 1:

e|-----------------------------------------------------------|
B|-----------------------------------------------------------|
G|-----------------------------------------------------------|
D|------------------------------5------5------5----------3~--|
A|--------------------------------7-0----7-0-----7-------5~--|
D|--0~---------------------------------------------------0~--|

Guitar 2:

e|------------------------------------------------------------|
B|------------------------------------------------------------|
G|--777-777-77----999-999-99----121212-121212-12-1212----10~--|
D|--000-000-00----000-000-00-----0-0-0--0-0-0--0--0-0-----0~--|
A|------------------------------------------------------------|
D|------------------------------------------------------------|




CHORUS [01:54]

Guitar 1:

e|----------5--------|          |----------1--------|          |----------3--------|
B|------6-----6------|          |------1-----1------|          |------3-----3------|
G|--------7-----7----|          |--------3-----3----|          |--------5-----5----|
D|----7-----------7--|   [x4]   |----3-----------3--|   [x2]   |----5-----------5--|   [x2]
A|--5----------------|          |--1----------------|          |--3----------------|
D|-------------------|          |-------------------|          |-------------------|

Guitar 2:

e|-------------------|          |----------1--------|          |----------3--------|
B|----------6--------|          |------1-----1------|          |------3-----3------|
G|------7-----7------|          |--------3-----3----|          |--------5-----5----|
D|--------7-----7----|   [x4]   |----3-----------3--|   [x2]   |----5-----------5--|   [x2]
A|----5-----------5--|          |--1----------------|          |--3----------------|
D|--0----------------|          |-------------------|          |-------------------|



Guitar 1:

e|----------5--------|          |----------1--------|          |----------3--------|
B|------6-----6------|          |------1-----1------|          |------3-----3------|
G|--------7-----7----|          |--------3-----3----|          |--------5-----5----|
D|----7-----------7--|   [x4]   |----3-----------3--|   [x2]   |----5-----------5--| 
A|--5----------------|          |--1----------------|          |--3----------------|
D|-------------------|          |-------------------|          |-------------------|

Guitar 2:

e|-------------------|          |----------1--------|          |----------3--------|
B|----------6--------|          |------1-----1------|          |------3-----3------|
G|------7-----7------|          |--------3-----3----|          |--------5-----5----|
D|--------7-----7----|   [x4]   |----3-----------3--|   [x2]   |----5-----------5--|   
A|----5-----------5--|          |--1----------------|          |--3----------------|
D|--0----------------|          |-------------------|          |-------------------|



Guitar 1:

e|----------------------------|
B|----------------------------|
G|----------------------------|
D|----------------------------|
A|--/8-----7-----5-----3------|
D|-----(0)---(0)---(0)---(0)--|

Guitar 2:

e|----------------------------|
B|----------------------------|
G|----------------------------|
D|--/7-----5-----3-----2------|
A|----------------------------|
D|------0-----0-----0-----0---|




BRIDGE [02:26]

Guitar 1:

e|-------------------------------------------------------|
B|-------------------------------------------------------|
G|--10----10----10----10--------11----11----11----11-----|
D|-----10----10----10----10--------10----10----10----10--|
A|-------------------------------------------------------|
D|-------------------------------------------------------|

Guitar 2:

e|--5~--|
B|--6~--|
G|--7~--|
D|--7~--|
A|--5~--|
D|--0~--|



Guitar 1:

e|-------------------------------------------------|
B|-------------------------------------------------|
G|--8----8----8----8--------10----10----8----8-----|
D|----10---10---10---10--------10----10---10---10--|
A|-------------------------------------------------|
D|-------------------------------------------------|

Guitar 2:

e|--------------------------------------5~--|
B|--------------------------------------6~--|
G|--------------------------------------7~--|
D|--------------------------------------7~--|
A|--------------------------------------5~--|
D|--------------------------------------0~--|



Guitar 1:

e|-------------------------------------------------------|
B|-------------------------------------------------------|
G|--10----10----10----10--------11----11----11----11-----|
D|-----10----10----10----10--------10----10----10----10--|
A|-------------------------------------------------------|
D|-------------------------------------------------------|

Guitar 2:

e|--5~-----------------------------------------------55--|
B|--6~-----------------------------------------------66--|
G|--7~-----------------------------------------------77--|
D|--7~-----------------------------------------------77--|
A|--5~-----------------------------------------------55--|
D|--0~-----------------------------------------------00--|



Guitar 1:

e|------------------------------------------|
B|------------------------------------------|
G|--8----8----8----8--------10----10----10--|
D|----10---10---10---10--------10----10-----|
A|------------------------------------------|
D|------------------------------------------|

Guitar 2:

e|--5-5--5-5--5-5--5-5------5--5--5--5--5--|
B|--6-6--6-6--6-6--6-6------6--6--6--6--6--|
G|--7-7--7-7--7-7--7-7------7--7--7--7--7--|
D|--7-7--7-7--7-7--7-7------7--7--7--7--7--|
A|--5-5--5-5--5-5--5-5------5--5--5--5--5--|
D|--0-0--0-0--0-0--0-0------0--0--0--0--0--|



Guitar 1:

e|-------------------------------------------------------|
B|-------------------------------------------------------|
G|--10----10----10----10--------11----11----11----11-----|
D|-----10----10----10----10--------10----10----10----10--|
A|-------------------------------------------------------|
D|-------------------------------------------------------|

Guitar 2:

e|--------------------------|
B|--6-----------6-----------|
G|-----7-----------7-----7--|
D|--------7-----------7-----|   [x2]
A|-----------5--------------|
D|--------------------------|



Guitar 1:

e|-------------------------------------------------|
B|-------------------------------------------------|
G|--8----8----8----8--------10----10----8----8-----|
D|----10---10---10---10--------10----10---10---10--|
A|-------------------------------------------------|
D|-------------------------------------------------|

Guitar 2:

e|----------------------|
B|--6---------6---------|
G|----7---------7----7--|
D|-------7---------7----|   [x2]
A|---------5------------|
D|----------------------|



Guitar 1:

e|-------------------------------------------------------|
B|-------------------------------------------------------|
G|--10----10----10----10--------11----11----11----11-----|
D|-----10----10----10----10--------10----10----10----10--|
A|-------------------------------------------------------|
D|-------------------------------------------------------|

Guitar 2:

e|--------------------------|
B|--6-----------6-----------|
G|-----7-----------7-----7--|
D|--------7-----------7-----|   [x2]
A|-----------5--------------|
D|--------------------------|



Guitar 1:

e|------------------------------------------------|
B|------------------------------------------------|
G|--8----8----8----8-------10-8----8--11-10-8-----|
D|----10---10---10---10---------10------------10--|
A|------------------------------------------------|
D|------------------------------------------------|

Guitar 2:

e|------------------------------------------------|
B|--6---------6------------6----------8--6--5-----|
G|----7---------7----7-----7--7-7--7----------7---|
D|-------7---------7-------7----------------------| 
A|---------5---------------5----------------------|
D|------------------------------------------------|




PRE-CHORUS [02:58]

Guitar 1:

e|-----------------------------------------------------------|
B|-----------------------------------------------------------|
G|-----------------------------------------------------------|
D|------------------------------5------5------5----------3~--|
A|--------------------------------7-0----7-0-----7-------5~--|
D|--0~---------------------------------------------------0~--|

Guitar 2:

e|------------------------------------------------------------|
B|------------------------------------------------------------|
G|--777-777-77----999-999-99----121212-121212-12-1212----10~--|
D|--000-000-00----000-000-00-----0-0-0--0-0-0--0--0-0-----0~--|
A|------------------------------------------------------------|
D|------------------------------------------------------------|




CHORUS [03:06]

Guitar 1:

e|----------5--------|          |----------1--------|          |----------3--------|
B|------6-----6------|          |------1-----1------|          |------3-----3------|
G|--------7-----7----|          |--------3-----3----|          |--------5-----5----|
D|----7-----------7--|   [x4]   |----3-----------3--|   [x2]   |----5-----------5--|   [x2]
A|--5----------------|          |--1----------------|          |--3----------------|
D|-------------------|          |-------------------|          |-------------------|

Guitar 2:

e|-------------------|          |----------1--------|          |----------3--------|
B|----------6--------|          |------1-----1------|          |------3-----3------|
G|------7-----7------|          |--------3-----3----|          |--------5-----5----|
D|--------7-----7----|   [x4]   |----3-----------3--|   [x2]   |----5-----------5--|   [x2]
A|----5-----------5--|          |--1----------------|          |--3----------------|
D|--0----------------|          |-------------------|          |-------------------|



Guitar 1:

e|----------5--------|          |----------1--------|          |----------3--------|
B|------6-----6------|          |------1-----1------|          |------3-----3------|
G|--------7-----7----|          |--------3-----3----|          |--------5-----5----|
D|----7-----------7--|   [x4]   |----3-----------3--|   [x2]   |----5-----------5--| 
A|--5----------------|          |--1----------------|          |--3----------------|
D|-------------------|          |-------------------|          |-------------------|

Guitar 2:

e|-------------------|          |----------1--------|          |----------3--------|
B|----------6--------|          |------1-----1------|          |------3-----3------|
G|------7-----7------|          |--------3-----3----|          |--------5-----5----|
D|--------7-----7----|   [x4]   |----3-----------3--|   [x2]   |----5-----------5--|   
A|----5-----------5--|          |--1----------------|          |--3----------------|
D|--0----------------|          |-------------------|          |-------------------|



Guitar 1:

e|----------------------------5~--|
B|----------------------------6~--|
G|----------------------------7~--|
D|----------------------------7~--|
A|--/8-----7-----5-----3------5~--|
D|-----(0)---(0)---(0)---(0)--0~--|

Guitar 2:

e|----------------------------5~--|
B|----------------------------6~--|
G|----------------------------7~--|
D|--/7-----5------------------7~--|
A|---------------8-----7------5~--|
D|------0-----0-----0-----0---0~--|





************************************

| /   slide up
| \   slide down
| h   hammer-on
| p   pull-off
| ~   vibrato
| +   harmonic
| x   Mute note
| b   Bend
| pb  Pre-bend
| br  Bend release
| pbr Pre-bend release
| brb Bend release bend

************************************
Tap to rate this tab
 
# A B C D E F G H I J K L M N O P Q R S T U V W X Y Z