Song name
# A B C D E F G H I J K L M N O P Q R S T U V W X Y Z

Bullet For My Valentine - Last To Know tab

This tab is 100% accurate i learn it from Padge's rock house DVD
So i decided to share it with all...............KEEP IT METAL..........



d|------------------------------15-14----14----------------------------------|
A|----15br[slowly bend again]v--------15----15-------------------------------|
F|---------------------------------------------14--12v~~~--------------------|
C|---------------------------------------------------------------------------|
G|---------------------------------------------------------------------------|
D|---------------------------------------------------------------------------|

W\wahI.....................I

d|------------------------------15-14-------14--17fb-17b14--22fb--22v~~------|
A|------------------------------------15--15---------------------------------|
F|---/9v~~~~------/11v~~~~~-------------14-----------------------------------|
C|---------------------------------------------------------------------------|
G|---------------------------------------------------------------------------|
D|---------------------------------------------------------------------------|


d|---20-19---19-------------14-15-17-14-15-17-14-17-12-14-15-12-14-15-12-15--|
A|--------20----20-19-17v----------------------------------------------------|
F|---------------------------------------------------------------------------|
C|---------------------------------------------------------------------------|
G|---------------------------------------------------------------------------|
D|---------------------------------------------------------------------------|

d|--10-12-14-10-12-14-10-14-------15-14----14-------------12~~~~~~~~~~~------|
A|--------------------------------------15----15-----------------------------|
F|-----------------------------------------------14---12---------------------|
C|---------------------------------------------------------------------------|
G|---------------------------------------------------------------------------|
D|---------------------------------------------------------------------------|

BFMV RULEZZZZZZZZZZZZZZZZZZ
Tap to rate this tab
# A B C D E F G H I J K L M N O P Q R S T U V W X Y Z