Song name
# A B C D E F G H I J K L M N O P Q R S T U V W X Y Z

Bullet For My Valentine - Waking The Demon tab

Hey, all the other solo tabs on here aren't that accurate so I decided to put this one 
up... I've broken it down into sections for ya too so enjoy :)

Tuning - (low to high) CGCFAD

D|--14----------17b19~--17-21-17-16---------------------------------------|
A|--17b19-17-14-----------------------------------------------------------|
F|----------------------------------18-16-14~-----------------------------|
C|------------------------------------------------------------------------|
G|------------------------------------------------------------------------|
C|------------------------------------------------------------------------|

D|--------------------------------------------------------------19b21~-19-|
A|--------------------------------------14-------14-15-17-17-19-----------|
F|-/13-------13-14----13-14-16-13-14-16----14-16--------------------------|
C|-----14-16-------16-----------------------------------------------------|
G|------------------------------------------------------------------------|
C|------------------------------------------------------------------------|

D|-17-19-17-16-17-16----16-------x8--x8-------------------|
A|-------------------19---------------------------------------------------|
F|-------------------------18~--------------------------------------------|
C|------------------------------------------------------------------------|
G|------------------------------------------------------------------------|
C|------------------------------------------------------------------------|

For the tapping section in < > hold the 14th fret down and tap 17th as fast as you can 
with the edge of your pick, then do the same for 13th and 16th.

D|-------------------------------------------------------/----------------|
A|-15-14-12-14-12----12---------------------------------/-----------------|
F|----------------14----14-13-14-13-11-13-11-----------/---Tremolo--------|
C|-------------------------------------------14-9\----/-------------------|
G|------------------------------------------------\--/--------------------|
C|-------------------------------------------------\/---------------------|

Any questions, ect. - pjthomas1995@hotmail.co.uk

Tabbed by Pat Thomas
Tap to rate this tab
# A B C D E F G H I J K L M N O P Q R S T U V W X Y Z