Song name
# A B C D E F G H I J K L M N O P Q R S T U V W X Y Z

Bullet For My Valentine - Waking The Demon tab

Hey, First Tab so Please don't Hate





Guitar 1 (3rd time Guitar 2)
-------------------------------------------------|
-------------------------------------------------|
-------------------------------------------------|
-------------------------------------------------|
-------5p4--7p4---------------5p4--7p4---5--7----|
---4444---44---44-5p4h7p4-4444---44---44-5--7----|
PM ....   ..   ..         ....   ..   ..

--------------------------------------------------|
--------------------------------------------------|
--------------------------------------------------|
-----------------------------------7p4-5p4--------|
-------5p4--7p4---------------5p4---------7p4-5p4-|
---4444---44---44-5p4h7p4-4444---44---------------|
PM ....   ..   ..         ....   ..
Repeat 3 Times

On the 3rd time Guitar 1 and guitar 2 play This^^^^^

-------------------------------------------------|
-------------------------------------------------|
-------------------------------------------------|
---4----------------------4---------------5--7---|
---4----------------------4---------------5--7---|
---4----------------------4---------------5--7---|


-------------------------------------------------|
-------------------------------------------------|
-------------------------------------------------|
---4----------------------4---------------4------|
---4----------------------4---------------4------|
---4----------------------4---------------4------|


-------------------------------------------------|
-------------------------------------------------|
-------------------------------------------------|
--(4)--------------------------------------------|
--(4)--------------------------------------------|
--(4)--------------------------------------------|


-------------------------------------------------|
-------------------------------------------------|
-------------------------------------------------|
--(4)--------------------------------------------|
--(4)--------------------------------------------|
--(4)--------------------------------------------|

(Let Ring Through)
Tap to rate this tab
# A B C D E F G H I J K L M N O P Q R S T U V W X Y Z