Song name
# A B C D E F G H I J K L M N O P Q R S T U V W X Y Z

Bullet For My Valentine - Hand Of Blood tab

Tuning: Drop C

  Guitar 1
d|------------------------------------------|
a|------------------------------------------|
f|------------------------------------------|
c|-0-14-15-0-12-14-0-10-12-0-9-10-0-9-12-10-|
g|------------------------------------------|
c|------------------------------------------|
 |
 |Guitar2
d|------------------------------------------|
a|------------------------------------------|
f|------------------------------------------|
c|-0-7-8--0-5-7--0-3-5--0-2-3--0-2-5-3------|
g|------------------------------------------|
c|------------------------------------------|

  Guitar 1
d|------------------------------------------------------|
a|------------------------------------------------------|
f|------------------------------------------------------|
c|-0-14-15-0-12-14-0-10-12-0-9-10-9h10p9h10p9h10p9h10p9-|
g|------------------------------------------------------|
c|------------------------------------------------------|
 |
 |Guitar 2
d|------------------------------------------------------|
a|------------------------------------------------------|
f|------------------------------------------------------|
c|-0-7-8-0-5-7-0-3-5-0-2-3-2h3p2h3p2h3p2h3p2------------|
g|------------------------------------------------------|
c|------------------------------------------------------|

  Guitar 1
d|------------------------------------------------------|
a|------------------------------------------------------|
f|------------------------------------------------------|
c|-0-14-15-0-12-14-0-14-15-0-14-17-14-15-17-14----------|
g|------------------------------------------------------|
c|------------------------------------------------------|
 |
 |Guitar 2
d|------------------------------------------------------|
a|------------------------------------------------------|
f|------------------------------------------------------|
c|-0-7-8--0-5-7--0-3-5--0-2-3--0-2-5-3------------------|
g|------------------------------------------------------|
c|------------------------------------------------------|

  Guitar 1
d|------------------------------------------------------|
a|------------------------------------------------------|
f|------------------------------------------------------|
c|-0-14-15-0-12-14-0-10-12-0-9-10-----------------------|
g|------------------------------------------------------|
c|------------------------------------------------------|
 |
 |Guitar 2
d|------------------------------------------------------|
a|------------------------------------------------------|
f|------------------------------------------------------|
c|-0-7-8--0-5-7--0-3-5--0-2-3---------------------------|
g|------------------------------------------------------|
c|------------------------------------------------------|
Tap to rate this tab
# A B C D E F G H I J K L M N O P Q R S T U V W X Y Z