Song name
# A B C D E F G H I J K L M N O P Q R S T U V W X Y Z

Bullet For My Valentine - Ashes Of The Innocent tab

Ashes Of The Innocent By Bullet For My Valentine

Padge Solo
Turning : Drop C

-----------------------------|--------------------------------|
-----------------------------|--------------------12-14-12-14-|
--6g7------------11-13-11-13-|--13b---------L~----------------|
-----------------------------|--------------------------------|
-----------------------------|--------------------------------|
-----------------------------|--------------------------------|


---------------------------------|----------------------------------|
--14br---------L~----12-14-12-14-|--14br---------L~----12-14-15~-12-|
---------------------------------|----------------------------------|
---------------------------------|----------------------------------|
---------------------------------|----------------------------------|
---------------------------------|----------------------------------|


---------------------|-------|----------------------------------|
---------------------|-------|--17--17--17--19--19--19--21--21--|
--14~----------------|-------|----------------------------------|
---------------------|-------|----------------------------------|
---------------------|-------|----------------------------------|
---------------------|-------|----------------------------------|


--------------------------------------------------|----|-------|-------|
--17-19-21-17-19-21-17-19-21-17-19-21-17-19-21-19-|----|-------|-------|
--------------------------------------------------|----|-------|-------|
--------------------------------------------------|----|-------|-------|
--------------------------------------------------|----|-------|-------|
--------------------------------------------------|----|-------|-------|


--21-19-17---------------------------|-------------------------|
-----------21-19-17------------------|-------------------------|
--------------------19-18-16b--------|--4-6-L~-----------4--6--|
-------------------------------------|-------------------------|
-------------------------------------|-------------------------|
-------------------------------------|-------------------------|


---------------------------|----------------------|-------------------------|
---------------------------|----------------------|-------------------------|
--6-7~-L------6------6-7-6-|--4~------------2--4--|--4-6-L~------4~------L--|
---------------------------|----------------------|-------------------------|
---------------------------|----------------------|-------------------------|
---------------------------|----------------------|-------------------------|


-----------------------|------------------------|-------|-------|-------|
-----------------------|------------------------|-------|-------|-------|
--2~--------L----4--6--|--6-7~-L------6b--------|-------|-------|-------|
-----------------------|------------------------|-------|-------|-------|
-----------------------|------------------------|-------|-------|-------|
-----------------------|------------------------|-------|-------|-------|


-------------------------------------------------------------------------|
-------------------------------------------------------------------------|
--1-2-3-4-5-6-7-8-9-10-11-12-13-12-11-10-9-8-7-6-5-4-3-2-1-2-3-4-5-6-7-8-|
-------------------------------------------------------------------------|
-------------------------------------------------------------------------|
-------------------------------------------------------------------------|


-------------------------------------------------------------------------------|
-------------------------------------------------------------------------------|
--9-10-11-12-13-12-11-10-9-8-7-6-5-4-3-2-1-2-3-4-5-6-7-8-9-10-11-12-13-11-10-9-|
-------------------------------------------------------------------------------|
-------------------------------------------------------------------------------|
-------------------------------------------------------------------------------|


-------------------------------------------------------------------------|
-------------------------------------------------------------------------|
--8-7-6-5-4-3-2-1-2-3-4-5-6-7-8-9-10-11-12-13-12-11-10-9-8-7-6-5-4-3-2-1-|
-------------------------------------------------------------------------|
-------------------------------------------------------------------------|
-------------------------------------------------------------------------|


-------------------------------------------------------------------------|
-------------------------------------------------------------------------|
--1-2-3-4-5-6-7-8-9-10-11-12-13-12-11-10-9-8-7-6-5-4-3-2-1-2-3-4-5-6-7-8-|
-------------------------------------------------------------------------|
-------------------------------------------------------------------------|
-------------------------------------------------------------------------|


-------------------------------------------------------------------------------|
-------------------------------------------------------------------------------|
--9-10-11-12-13-12-11-10-9-8-7-6-5-4-3-2-1-2-3-4-5-6-7-8-9-10-11-12-13-11-10-9-|
-------------------------------------------------------------------------------|
-------------------------------------------------------------------------------|
-------------------------------------------------------------------------------|


-------------------------------------------------------------------------|
-------------------------------------------------------------------------|
--8-7-6-5-4-3-2-1-2-3-4-5-6-7-8-9-10-11-12-13-12-11-10-9-8-7-6-5-4-3-2-1-|
-------------------------------------------------------------------------|
-------------------------------------------------------------------------|
-------------------------------------------------------------------------|


------------------------------------------------------------------|-------||
------------------------------------------------------------------|-------||
--5-4-3-2-1-0-----------------------------------------------------|-------||
--------------5-4-3-2-1-0-----------------------------------------|-------||
--------------------------5-4-3-2-1-0-----------------------------|-------||
--------------------------------------5-4-3-2-1-0-0-0-0-0-0-0-0-0-|-------||






Matt Solo
Turning : Drop C


-------------------------------------------------------------------------------
---------------------------------------------------------12h-14h-15-15h-17h-19-
-----------------------------------11h-13h-14-11h-13h-14-----------------------
-------------11h-12h-14-11h-12h-14---------------------------------------------
--11h-12h-14-------------------------------------------------------------------
-------------------------------------------------------------------------------


--16h-17h-19------------|
------------------------|
------------------------|
------------------------|
------------------------|
------------------------|



--19b--------19~--------|--<>19b--------19~----16--16-17-|
------------------------|--------------------------------|
------------------------|--------------------------------|
------------------------|--------------------------------|
------------------------|--------------------------------|
------------------------|--------------------------------|


--16--16--16--17--17--17--19--19--|
----------------------------------|
----------------------------------|
----------------------------------|
----------------------------------|
----------------------------------|


--16-17-19-16-17-19-16-17-19-16-17-19-16-17-19-17-|
--------------------------------------------------|
--------------------------------------------------|
--------------------------------------------------|
--------------------------------------------------|
--------------------------------------------------|


----------------------------------------------------------------------|
--17b--17br-17p-14-17b--17br-17p-14-17b--17br-17p-14-17b--17br-17p-14-|
----------------------------------------------------------------------|
----------------------------------------------------------------------|
----------------------------------------------------------------------|
----------------------------------------------------------------------|


------------------------------------16b------------17b--17br-19-|
-------17br-17p-14-17b--17br-17p-14------17p--L-14--------------|
--16b-----------------------------------------------------------|
----------------------------------------------------------------|
----------------------------------------------------------------|
----------------------------------------------------------------|


--19b----19~----17----16~----|--17-16-14---------------------------|
-----------------------------|-----------17-15-14------------------|
-----------------------------|--------------------16-14-13b--------|
-----------------------------|-------------------------------------|
-----------------------------|-------------------------------------|
-----------------------------|-------------------------------------|


-------------------------|---------------------------|----------------------|
-------------------------|---------------------------|----------------------|
-------------------------|---------------------------|----------------------|
--6-7-L~-----------6--7--|--7-9~-L------7------7-9-7-|--6~------------4--6--|
-------------------------|---------------------------|----------------------|
-------------------------|---------------------------|----------------------|


------------------------|-----------------------|------------------------|
------------------------|-----------------------|------------------------|
------------------------|-----------------------|------------------------|
--6-7-L~------6------L--|--4~--------L----6--7--|--7-9~-L------7b--------|
------------------------|-----------------------|------------------------|
------------------------|-----------------------|------------------------|

-------------------------------------------------------------------------|
-------------------------------------------------------------------------|
--1-2-3-4-5-6-7-8-9-10-11-12-13-12-11-10-9-8-7-6-5-4-3-2-1-2-3-4-5-6-7-8-|
-------------------------------------------------------------------------|
-------------------------------------------------------------------------|
-------------------------------------------------------------------------|


-------------------------------------------------------------------------------|
-------------------------------------------------------------------------------|
--9-10-11-12-13-12-11-10-9-8-7-6-5-4-3-2-1-2-3-4-5-6-7-8-9-10-11-12-13-11-10-9-|
-------------------------------------------------------------------------------|
-------------------------------------------------------------------------------|
-------------------------------------------------------------------------------|


-------------------------------------------------------------------------|
-------------------------------------------------------------------------|
--8-7-6-5-4-3-2-1-2-3-4-5-6-7-8-9-10-11-12-13-12-11-10-9-8-7-6-5-4-3-2-1-|
-------------------------------------------------------------------------|
-------------------------------------------------------------------------|
-------------------------------------------------------------------------|


-------------------------------------------------------------------------|
-------------------------------------------------------------------------|
--1-2-3-4-5-6-7-8-9-10-11-12-13-12-11-10-9-8-7-6-5-4-3-2-1-2-3-4-5-6-7-8-|
-------------------------------------------------------------------------|
-------------------------------------------------------------------------|
-------------------------------------------------------------------------|


-------------------------------------------------------------------------------|
-------------------------------------------------------------------------------|
--9-10-11-12-13-12-11-10-9-8-7-6-5-4-3-2-1-2-3-4-5-6-7-8-9-10-11-12-13-11-10-9-|
-------------------------------------------------------------------------------|
-------------------------------------------------------------------------------|
-------------------------------------------------------------------------------|


-------------------------------------------------------------------------|
-------------------------------------------------------------------------|
--8-7-6-5-4-3-2-1-2-3-4-5-6-7-8-9-10-11-12-13-12-11-10-9-8-7-6-5-4-3-2-1-|
-------------------------------------------------------------------------|
-------------------------------------------------------------------------|
-------------------------------------------------------------------------|


------------------------------------------------------------------|-------||
------------------------------------------------------------------|-------||
--5-4-3-2-1-0-----------------------------------------------------|-------||
--------------5-4-3-2-1-0-----------------------------------------|-------||
--------------------------5-4-3-2-1-0-----------------------------|-------||
--------------------------------------5-4-3-2-1-0-0-0-0-0-0-0-0-0-|-------||

Tap to rate this tab
 
# A B C D E F G H I J K L M N O P Q R S T U V W X Y Z