Song name
# A B C D E F G H I J K L M N O P Q R S T U V W X Y Z

Bullet For My Valentine - Watching Us Die Tonight tab

Hi this is my first guitar tabs. All this is Matt's part.

Any mistake Please Message me via Youtube - Name:Purewclife

* - Palm Mute
^ - Pinch Harmonic
~ - Let Ring
B- Bend
B/ - Bend Slightly

INTRO 1
D|------------------------------------------------|
A|------------------------------------------------|
F|------------------------------------------------|
C|------------------------------------------------|
G|14h16-17-17-17-17-14h16-16-16-16-16-14h16-16-16-|
D|------------------------------------------------|
         *  *

D|------------------------------------------------|
A|------------------------------------------------|
F|------------------------------------------------|
C|------------------------------------------------|
G|14h16-16-16-16-16-14h16-16-16-16-16-14h16-16-16-|
D|------------------------------------------------|
      *  *  *  *        *  *  *  *        *  *

D|------------------------------------------------|
A|------------------------------------------------|
F|------------------------------------------------|
C|------------------------------------------------|
G|14h16-16-16-16-16-14h16-16-16-16-16-14h16-16-16-|
D|------------------------------------------------|
      *  *  *  *        *  *  *  *        *  *

D|------------------------------------------------|
A|------------------------------------------------|
F|------------------------------------------------|
C|------------------------------------------------|
G|14h16-16-16-16-16-14h16-16-16-16-16-14h16-16-16-|
D|------------------------------------------------|
      *  *  *  *        *  *  *  *        *  *


D|------------------------------------------------|
A|------------------------------------------------|
F|------------------------------------------------|
C|------------------------------------------------|
G|12h14-14-14-14-14-12h14-14-14-14-14-12h14-14-14-|
D|------------------------------------------------|
      *  *  *  *        *  *  *  *        *  *

D|------------------------------------------------|
A|------------------------------------------------|
F|------------------------------------------------|
C|------------------------------------------------|
G|12h14-14-14-14-14-12h14-14-14-14-14-12h14-14-14-|
D|------------------------------------------------|
      *  *  *  *        *  *  *  *        *  *

D|------------------------------------------------|
A|------------------------------------------------|
F|------------------------------------------------|
C|------------------------------------------------|
G|14h16-16-16-16-16-14h16-16-16-16-16-14h16-16-16-|
D|------------------------------------------------|
      *  *  *  *        *  *  *  *        *  *

INTRO 2

D|------------------------------------------------|
A|------------------------------------------------|
F|------------------------------------------------|
C|------------------------------------------------|
G|16-17-17-17-17-17-16-17-17-17-17-17-16-17-17-17-|
D|------------------------------------------------|
      *  *  *  *        *  *  *  *        *  *     

D|------------------------------------------------|
A|------------------------------------------------|
F|------------------------------------------------|
C|------------------------------------------------|
G|16-17-17-17-17-17-16-17-17-16-17-19-17-16-17-17-|
D|------------------------------------------------|
      *  *  *  *        *  *  *  *        *  *     

D|------------------------------------------------|
A|------------------------------------------------|
F|------------------------------------------------|
C|------------------------------------------------|
G|16-17-17-17-17-17-16-17-17-17-17-17-16-17-17-17-|
D|------------------------------------------------|
      *  *  *  *        *  *  *  *        *  *    

D|------------------------------------------------|
A|------------------------------------------------|
F|------------------------------------------------|
C|------------------------------------------------|
G|16-17-17-17-17-17-16-17-17-17-17-17-16-17-17-17-|
D|------------------------------------------------|
      *  *  *  *        *  *  *  *        *  *    

D|------------------------------------------------|
A|------------------------------------------------|
F|------------------------------------------------|
C|------------------------------------------------|
G|14h16-16-16-16-16-14h16-16-16-16-16-14h16-16-16-|
D|------------------------------------------------|
      *  *  *  *        *  *  *  *        *  *

D|------------------------------------------------|
A|------------------------------------------------|
F|------------------------------------------------|
C|------------------------------------------------|
G|14h16-16-16-16-16-14h16-16-16-16-16-14h16-16-16-|
D|------------------------------------------------|
      *  *  *  *        *  *  *  *        *  *  ^


VERSE 1

D|--------------------------|
A|--------------------------|
F|--------------------------|
C|--------------------------|
G|-----9----9--9----9--7--9-|
D|-7-7--7-7--7--7-7--7--7---|

D|----------------------------|
A|----------------------------|
F|----------------------------|
C|----------------------------|
G|-----9----9--9----9--10--9--|
D|-7-7--7-7--7--7-7--7---7----|


D|-------------------------|
A|-------------------------|
F|-------------------------|
C|-------------------------|
G|-----9----9--9----9--7h9-|
D|-7-7--7-7--7--7-7--7-----|

D|---------------------------|
A|---------------------------|
F|---------------------------|
C|---------------------------|
G|-----5----5--5----9---9--9-|
D|-3-3--3-3--3--5-5--5-5--5--|

D|--------------------------|
A|--------------------------|
F|--------------------------|
C|--------------------------|
G|-----9----9--9----9--7--9-|
D|-7-7--7-7--7--7-7--7--7---|

D|----------------------------|
A|----------------------------|
F|----------------------------|
C|----------------------------|
G|-----9----9--9----9--10--9--|
D|-7-7--7-7--7--7-7--7---7----|


D|-------------------------|
A|-------------------------|
F|-------------------------|
C|-------------------------|
G|-----9----9--9----9--7h9-|
D|-7-7--7-7--7--7-7--7-----|

D|---------------------------|
A|---------------------------|
F|---------------------------|
C|---------------------------|
G|-----5----5--5----9---9--9-|
D|-3-3--3-3--3--5-5--5-5--5--|

PRE-CHORUS
D|-------------------|
A|-------------------|
F|------------7------|  Let The Notes Ring
C|9-----5-----7----7-|
G|9-----5-----5----7-|
D|7-----3----------5-|

D|-------------------|
A|-------------------|
F|------------7------|  Let The Notes Ring
C|9-----5-----7----7-|
G|9-----5-----5----7-|
D|7-----3----------5-|

D|-------------------|
A|-------------------|
F|------------7------|  Let The Notes Ring
C|9-----5-----7----7-|
G|9-----5-----5----7-|
D|7-----3----------5-|

CHORUS
D|------------------|
A|12~---------------|
F|------------------|
C|9~---9~---5~---7~-|
G|9~---9~---5~---7~-|
D|7~---7~---3~---5~-|

D|------------------|
A|12~---------------|
F|------------------|
C|9~---9~---5~---7~-|
G|9~---9~---5~---7~-|
D|7~---7~---3~---5~-|

BREAK DOWN

D|--------------------------|      D|-----------------------------------|
A|--------------------------|      A|-----------------------------------|
F|4-------4------4------2-4-|      F|4-------4------4------2-4--4-----7~|
C|4--4-4--4-4-4--4-4-4--2-4-|  X3  C|4--4-4--4-4-4--4-4-4--2-4--4-4-4-7~|
G|2--2-2--2-2-2--2-2-2--0-2-|      G|2--2-2--2-2-2--2-2-2--0-2--2-2-2-5~|
D|--------------------------|      D|-----------------------------------|
                                                                      B/
VERSE 2

D|--------------------------|
A|--------------------------|
F|--------------------------|
C|--------------------------|
G|-----9----9--9----9--7--9-|
D|-7-7--7-7--7--7-7--7--7---|

D|----------------------------|
A|----------------------------|
F|----------------------------|
C|----------------------------|
G|-----9----9--9----9--10--9--|
D|-7-7--7-7--7--7-7--7---7----|

D|-------------------------|
A|-------------------------|
F|-------------------------|
C|-------------------------|
G|-----9----9--9----9--7h9-|
D|-7-7--7-7--7--7-7--7-----|

D|---------------------------|
A|---------------------------|
F|---------------------------|
C|---------------------------|
G|-----5----5--5----9---9--9-|
D|-3-3--3-3--3--5-5--5-5--5--|

D|--------------------------|
A|--------------------------|
F|--------------------------|
C|--------------------------|
G|-----9----9--9----9--7--9-|
D|-7-7--7-7--7--7-7--7--7---|

D|----------------------------|
A|----------------------------|
F|----------------------------|
C|----------------------------|
G|-----9----9--9----9--10--9--|
D|-7-7--7-7--7--7-7--7---7----|

D|-------------------------|
A|-------------------------|
F|-------------------------|
C|-------------------------|
G|-----9----9--9----9--7h9-|
D|-7-7--7-7--7--7-7--7-----|

D|---------------------------|
A|---------------------------|
F|---------------------------|
C|---------------------------|
G|-----5----5--5----9---9--9-|
D|-3-3--3-3--3--5-5--5-5--5--|

PRE-CHORUS
D|-------------------|
A|-------------------|
F|------------7------|  Let The Notes Ring
C|9-----5-----7----7-|
G|9-----5-----5----7-|
D|7-----3----------5-|

D|-------------------|
A|-------------------|
F|------------7------|  Let The Notes Ring
C|9-----5-----7----7-|
G|9-----5-----5----7-|
D|7-----3----------5-|

D|-------------------|
A|-------------------|
F|------------7------|  Let The Notes Ring
C|9-----5-----7----7-|
G|9-----5-----5----7-|
D|7-----3----------5-|

CHORUS
D|------------------|
A|12~---------------|
F|------------------|
C|9~---9~---5~---7~-|
G|9~---9~---5~---7~-|
D|7~---7~---3~---5~-|

D|------------------|
A|12~---------------|
F|------------------|
C|9~---9~---5~---7~-|
G|9~---9~---5~---7~-|
D|7~---7~---3~---5~-|

BRIDGE

D|-------------------------------------------|
A|-------------------------------------------|
F|-------------------------------------------|
C|9~---7-9-11~---9~---7~---5-7-9~---7~---9~--|
G|-------------------------------------------|
D|-------------------------------------------|

D|-------------------------------------------|
A|-------------------------------------------|
F|-------------------------------------------|
C|9~---7-9-11~---9~---7~---5-7-9~---7~---9~--|
G|-------------------------------------------|
D|-------------------------------------------|

D|--------------------------------------------------------|
A|12~---10-12-14~---12~---10~---8-10-9~---12~---10~--12~--|
F|--------------------------------------------------------|
C|--------------------------------------------------------|
G|--------------------------------------------------------|
D|--------------------------------------------------------|

D|-----------------------------------------------------------------|
A|12~---10-12-14~---12~---10~---8-10-9~---12~---10~--12~--15~------|
F|-----------------------------------------------------------------|
C|-----------------------------------------------------------------|
G|-----------------------------------------------------------------|
D|-----------------------------------------------------------------|
                                                            B

PRE-CHORUS
D|---------------------|
A|---------------------|
F|--------------7------|  Let The Notes Ring
C|7-9-----5-----7----7-|
G|7-9-----5-----5----7-|
D|5-7-----3----------5-|

D|-------------------|
A|-------------------|
F|------------7------|  Let The Notes Ring
C|9-----5-----7----7-|
G|9-----5-----5----7-|
D|7-----3----------5-|

D|-------------------|
A|-------------------|
F|------------7------|  Let The Notes Ring
C|9-----5-----7----7-|
G|9-----5-----5----7-|
D|7-----3----------5-|

CHORUS
D|------------------|
A|12~---------------|
F|------------------|
C|9~---9~---5~---7~-|
G|9~---9~---5~---7~-|
D|7~---7~---3~---5~-|

D|------------------|
A|12~---------------|
F|------------------|
C|9~---9~---5~---7~-|
G|9~---9~---5~---7~-|
D|7~---7~---3~---5~-|

VERSE 3

D|--------------------------|
A|--------------------------|
F|--------------------------|
C|--------------------------|
G|-----9----9--9----9--7--9-|
D|-7-7--7-7--7--7-7--7--7---|

D|----------------------------|
A|----------------------------|
F|----------------------------|
C|----------------------------|
G|-----9----9--9----9--10--9--|
D|-7-7--7-7--7--7-7--7---7----|

D|-------------------------|
A|-------------------------|
F|-------------------------|
C|-------------------------|
G|-----9----9--9----9--7h9-|
D|-7-7--7-7--7--7-7--7-----|

D|---------------------------|
A|---------------------------|
F|---------------------------|
C|---------------------------|
G|-----5----5--5----9---9--9-|
D|-3-3--3-3--3--5-5--5-5--5--|

D|--------------------------|
A|--------------------------|
F|--------------------------|
C|--------------------------|
G|-----9----9--9----9--7--9-|
D|-7-7--7-7--7--7-7--7--7---|

D|----------------------------|
A|----------------------------|
F|----------------------------|
C|----------------------------|
G|-----9----9--9----9--10--9--|
D|-7-7--7-7--7--7-7--7---7----|

D|-------------------------|
A|-------------------------|
F|-------------------------|
C|-------------------------|
G|-----9----9--9----9--7h9-|
D|-7-7--7-7--7--7-7--7-----|

OUTRO

D|-----------|
A|-----------|
F|-----------|
C|-----------|
G|9~--10-9-7-|
D|-----------|

D|---------------------|
A|---------------------|
F|11-7-9~--11-9-14-16~-|
C|---------------------|
G|---------------------|
D|---------------------|





Tap to rate this tab
# A B C D E F G H I J K L M N O P Q R S T U V W X Y Z