Song name
# A B C D E F G H I J K L M N O P Q R S T U V W X Y Z

Bullet For My Valentine - Cries In Vain tab

-----------------------------------------------------------------------------
                Cries In Vain - Bullet For My Valentine
-----------------------------------------------------------------------------
Tabbed by:Metalcoreking
Email:Matthessell@live.com

Tuning:CGCFAD

INTRO
D|----------------------------------------------------------------------(x2)|
A|--------------------------------------------------------------------------|
F|--------------------------------------------------------------------------|
C|---10---9---5---7----10---9---5---------10---9---5---7----12---10---9-9-9-|
G|-0----0---0---0----0----0---0---0-7---0----0---0---0----0----0----0-------|
C|--------------------------------------------------------------------------|

D|--------0--------------------------------0--------------------------------|
A|--------6--------------------------------6--------------------------------|
F|--------5--5-4---7-5---4-5---4-5---------5--5-4---7-5---4-5---4-5---------|
C|-3333-3-3------5-----5-----5------3333-3-3------5-----5-----5-------------|
G|-3333-3-3-------------------------3333-3-3--------------------------------|
C|-3333-3-3-------------------------3333-3-3--------------------------------|
 |                                                                          |
D|--------0--------------------------------0----------------------------(x2)|
A|--------0--------------------------------0--------------------------------|
F|-2222-2-4--5-4---7-5---4-5---4-5--2222-2-4--5-4---7-5---4-5---4-5---------|
C|-2222-2-2------5-----5-----5------2222-2-2------5-----5-----5-------------|
G|-0000-0-0-------------------------0000-0-0--------------------------------|
C|--------------------------------------------------------------------------|

VERSE
D|--------------------------------------------------------------------------|
A|--------------------------------------------------------------------------|
F|-2-2-2-2--2-2--2-2-2-2--2-2---------------2-2-2-2--2-2--2-2-2-2--2-2--2---|
C|-2-2-2-2--2-2--2-2-2-2--2-2-3-2-----------2-2-2-2--2-2--2-2-2-2--2-2--2---|
G|-0-0-0-0--0-0--0-0-0-0--0-0-----5-3-5-3-2-0-0-0-0--0-0--0-0-0-0--0-0--0---|
C|--------------------------------------------------------------------------|
 |                                                                          |
D|--------------------------------------------------------------------------|
A|--------------------------------------------------------------------------|
F|--------5-4--------5-4------------------------5-7--------5-4--------------|
C|2-2-2-2----2-2-2-2-----3-2------------2-2-2-2----2-2-2-2-----3-2----------|
G|0-0-0-0----0-0-0-0---------5-3-5-3-2--0-0-0-0----0-0-0-0---------5-3-5-3-2|
C|--------------------------------------------------------------------------|

CHORUS
D|--------0--------------------------------0--------------------------------|
A|--------6--------------------------------6--------------------------------|
F|--------5--------------------------------5--------------------------------|
C|-3333-3-3-------------------------3333-3-3--------------------------------|
G|-3333-3-3-------------------------3333-3-3--------------------------------|
C|-3333-3-3-------------------------3333-3-3--------------------------------|
 |                                                                          |
D|-----------------------------------------------------(x2)|----------------|
A|---------------------------------------------------------|----------------|
F|-5-----4---4---5-----4---4---5-----4---4---5-----4---4---|---------------2|
C|---5-5---5---5---5-5---5---5---5-5---5---5---5-5---5---5-|-3-2-----------2|
G|---------------------------------------------------------|-----5-3-5-3-2-0|
C|---------------------------------------------------------|----------------|

INTRO

VERSE

CHORUS

BREAKDOWN
D|----------------------------------------------------------------------(x4)|
A|--------------------------------------------------------------------------|
F|--------------------------------------------------------------------------|
C|-7-7-7-7-7-7-7-7---7-7-7-7-7-7-7-7---7-7-7-7-7-7-7-7----7-7-7-7-7-7-7-7---|
G|-0-0-0-0-0-0-0-0---8-8-8-8-8-8-8-8---1010101010101010---7-7-7-7-7-7-7-7---|
C|--------------------------------------------------------------------------|

SOLO
D|----------------------------------------------------------------------(x2)|
A|--------------------------------------------------------------------------|
F|------------------9---9-10-------9----9-10/12-10-9-10-9-7-----------------|
C|-----9---9-10-------------------------------------------------------------|
G|-7-7---7------8-8---8------10-10---10-------------------------------------|
C|--------------------------------------------------------------------------|
 |                                                                          |
D|----------------------------------------------------------------------(x2)|
A|--------------------------------------------------------------------------|
F|------------------9---9-10-------9----9-10/12-10h12p10-9-10-9-7-----------|
C|-----9---9-10-------------------------------------------------------------|
G|-7-7---7------8-8---8------10-10---10-------------------------------------|
C|--------------------------------------------------------------------------|

CHORUS

INTRO

OUTRO
D|----------------------------------------------------------------------(x4)|
A|--------------------------------------------------------------------------|
F|-2-2--2-2-2--2-2-2--2-2-2--2-2-2--2-2-2--2--------------------------------|
C|-2-2--2-2-2--2-2-2--2-2-2--2-2-2--2-2-2--2--3-3-3-3--5-5-5-5--------------|
G|-0-0--0-0-0--0-0-0--0-0-0--0-0-0--0-0-0--0--3-3-3-3--5-5-5-5--------------|
C|--------------------------------------------3-3-3-3--5-5-5-5--------------|
 | x x  x x x  x x x  x x x  x x x  x x x  x  x x x x  x x x x              |            
                                                              |
D|------------------|----------------(1st)|----------------------------(2nd)|
A|--------5TREMELO--|---------------------|---------------------------------|
F|-2-2-2------------|---------------------|----------------------2----------|
C|-2-2-2------------|--3-3-3-3-3-3-3-3----|-----3-3-3-3-3-3-3-3--2----------|
G|-0-0-0------------|--3-3-3-3-3-3-3-3----|-----3-3-3-3-3-3-3-3--0----------|
C|--------------(x3)|--3-3-3-3-3-3-3-3----|-----3-3-3-3-3-3-3-3-------------|
                                                x x x x x x x x
************************************

| /   slide up
| \   slide down
| h   hammer-on
| p   pull-off
| ~   vibrato
| +   harmonic
| x   Mute note
| b   Bend
| pb  Pre-bend
| br  Bend release
| pbr Pre-bend release
| brb Bend release bend

************************************
Tap to rate this tab
 
# A B C D E F G H I J K L M N O P Q R S T U V W X Y Z