Song name
# A B C D E F G H I J K L M N O P Q R S T U V W X Y Z

Bullet For My Valentine - No Easy Way Out tab

great song with an easy but nice solo....the solo is 99.9%!!
i have improvised it and its pretty accurate i have to admit!

                                HAVE FUN ;)
ARTIST: BULLET FOR MY VALENTINE
SONG:NO EASY WAY OUT (BEAUTIFUL COVER!!!!)
TUNING: DGCFAD
VIBRATO: ~
SLIDE: /

D|-----11~----------------11~---------------------|
G|-7-8-----8-7-5~-3~--7-8-----8-7-5-5/8/7---------|
C|------------------------------------------------|
F|------------------------------------------------|
A|------------------------------------------------|
D|------------------------------------------------|

D|----------11~-----------------11~---------------|
G|8-7-8-7-8-----8-7-5~-3~---7-8-----8-7-10fb-10---|
C|------------------------------------------------|
F|------------------------------------------------|
A|------------------------------------------------|
D|------------------------------------------------|
Tap to rate this tab
# A B C D E F G H I J K L M N O P Q R S T U V W X Y Z