Song name
# A B C D E F G H I J K L M N O P Q R S T U V W X Y Z

Bullet For My Valentine - One Good Reason Why tab

One Good Reason Why

Artist: Bullet for My Valentine

Album: Scream Aim Fire (Deluxe) 

Tuning: D Standard (D G C F A D)

This is the first BFMV song that if figured out note for note by myself. I usually 
have a lot of help from Shane on most of the BFMV rhythm parts, or I usually use 
tabs to at least check my work. But for this song, I donít have tabs, so it was 
fun to figure out. Email me at Famine4329@gmail.com. Or you can leave comments and 
let me know what you think.

Intro:
Guitar 1:
[---------------][------------------------------------]
[---------------][------------------------------------]
[---------------][-2~----------------2~-------5~~-----]
[---------------][-2~--7-5--8-7-5-7--2~--7-5--5~~-5~~-]x4
[-3-2-0-2-5-3-2-][-0~-0-0-00-0-0-0-0-0~-0-0-0-3~~-5~~-]
[---------------][--------------------------------3~~-]
  * * * * * * *       * * ** * * * *    * * *
[-------------------------------------]
[-------------------------------------]
[-------------------------------------]
[-7~-------7~-------7~------3~-3-5~-5-]x2
[-7~-7777757~-7777757~-777773~-3-5~-5-]
[-5~-5555535~-5555535~-555551~-1-3~-3-]
     ******   ******   *****
Guitar 2:
[---------------][------------------------------------]
[---------------][------------------------------------]
[---------------][-2~~~~~~~~~~~~~~~~-2~~~~~~~-5~~-----]
[---------------][-2~~~~~~~~~~~~~~~~-2~~~~~~~-5~~-5~~-]x2
[-3-2-0-2-5-3-2-][-0~~~~~~~~~~~~~~~~-0~~~~~~~-3~~-5~~-]
[---------------][--------------------------------3~~-]
  * * * * * * *
[-----------------------------------------]
[-----------------------------------------]
[-2~--------------------2~--------5~~-----]
[-2~--10-8--12-10-8-10--2~--10-8--5~~-5~~-]x2
[-0~-0--0-00--0--0-0--0-0~-0--0-0-3~~-5~~-]
[-------------------------------------3~~-]
     *  * **  *  * *  *    *  * *
[-----------------------------------------]
[-----------------------------------------]
[-----------------------------------------]
[-----------------5h7p5~~~~~~~~-3~-3-5~-5-]
[-------------------------------3~-3-5~-5-]
[-------------------------------1~-1-3~-3-]
Verse: 
Both Guitars:
[------------------------------------]
[------------------------------------]
[-2~----------------2~-------5~~-----]
[-2~--7-5--8-7-5-7--2~--7-5--5~~-5~~-]x3
[-0~-0-0-00-0-0-0-0-0~-0-0-0-3~~-5~~-]
[--------------------------------3~~-]
     * * ** * * * *    * * *
[---------------------------------------------------]
[---------------------------------------------------]
[-2~--------------------------2~------------5~~-----]
[-2~--7p0h5p0--8p0h7p0h5p0h7--2~--7p0h5p0---5~~-5~~-]
[-0~---------00---------------0~---------00-3~~-5~~-]
[-----------------------------------------------3~~-]
             **                          **
3rd and 4th time, Guitar 2 does:
[------------------------------------]
[------------------------------------]
[-2~----------------2~-------5~~-----]
[-2~----------------2~-------5~~-5~~-]x2
[-0~----------------0~-------3~~-5~~-]
[--------------------------------3~~-]
Pre-Chorus:
Guitar 1:
[-------------------------------------------]
[-------------------------------------------]
[-2~---------2~--------2~-------------------]
[-2~--5-5h7--2~--8-8p5-2~--5-7p5--8p7--10p8-]
[-0~-0-0-----0~-0-0----0~-0-0---00---00-----]
[-------------------------------------------]
     * *        * *       * *   **   **        x2
[------------------------------------]
[------------------------------------]
[-2~----------------2~-------5~~-----]
[-2~--7-5--8-7-5-7--2~--7-5--5~~-5~~-]
[-0~-0-0-00-0-0-0-0-0~-0-0-0-3~~-5~~-]
[--------------------------------3~~-]
     * * ** * * * *    * * *
Guitar 2:
[-------------------------------------]
[-------------------------------------]
[-2~---------2~--------2~------2~--2~-]
[-2~---------2~--------2~------2~--2~-]
[-0~-0-0-00--0~-0-0-00-0~-0-0-00~-00~-]
[-------------------------------------]
     * * **     * * **    * * *   *        x2
[-----------------------------------------]
[-----------------------------------------]
[-2~--------------------2~--------5~~-----]
[-2~--10-8--12-10-8-10--2~--10-8--5~~-5~~-]
[-0~-0--0-00--0--0-0--0-0~-0--0-0-3~~-5~~-]
[-------------------------------------3~~-]
     *  * **  *  * *  *    *  * *
Chorus:
Guitar 1:
[------------------------------------]
[------------------------------------]
[-2~~~~~~~~~~~-5~~-------------------]
[-2~~~~~~~~~~~-5~~-3~~~~~~~-5~~~~~~~-]
[-0~~~~~~~~~~~-3~~-3~~~~~~~-5~~~~~~~-]
[------------------1~~~~~~~-3~~~~~~~-]

[-----------------------------------------------------]
[-----------------------------------------------------]
[-2~--------------------------------------------------]
[-2~--7-5--8-7-5-7-------------7-5--3~~~~~~~-5~~~~~~~-]
[-0~-0-0-00-0-0-0-0-0-8-7-5-7-0-0-0-3~~~~~~~-5~~~~~~~-]
[-----------------------------------1~~~~~~~-3~~~~~~~-]
     * * ** * * * * * * * * * * * *
Guitar 2:
[------------------------------------]
[------------------------------------]
[-2~~~~~~~~~~~-5~~-------------------]
[-2~~~~~~~~~~~-5~~-3~~~~~~~-5~~~~~~~-]
[-0~~~~~~~~~~~-3~~-3~~~~~~~-5~~~~~~~-]
[------------------1~~~~~~~-3~~~~~~~-]

[-----------------------------------------------------------]
[-----------------------------------------------------------]
[-2~---------------------2~-------5~~-----------------------]
[-2~--10-8--12-10-8-10--2~--10-8--5~~-5~~-3~~~~~~~-5~~~~~~~-]
[-0~-0--0-00--0--0-0--0-0~-0--0-0-3~~-5~~-3~~~~~~~-5~~~~~~~-]
[-------------------------------------3~~-1~~~~~~~-3~~~~~~~-]
     *  * **  *  * *  *    *  * *
Intro (Second part only)
Verse
Pre-Chorus
Chorus
Breakdown:
Guitar 1:
[----------------------------------------]
[----------------------------------------]
[-------------8--------------------------]
[-2~------7-5---7-8~------8~-7-5----5-5~-]
[-0~-00000-0-0-0-0---00000-------8~--8---]
[----------------------------------------]
     ***** * * * *   *****                             x4
[------------------------------------------------]
[-------------------------11~-10-----------------]
[-------------8-----------------12-10~-12-10-12~-]
[-2~------7-5---7-8~-----------------------------]
[-0~-00000-0-0-0-0---00000-----------------------]
[------------------------------------------------]
     ***** * * * *   *****
Guitar 2: (after two repeats)
[------------------------------------------]
[-------------7----------------------------]
[---------5-3---5-7~------7~-5-3-2~-3-2-3~-]
[-2~---------------------------------------]
[-0~-00000-0-0-0-0---00000-----------------]
[------------------------------------------]
     ***** * * * *   *****                           x2
[-------------------------10~---------------------]
[-------------7---------------13-11-10~-11-10-11~-]
[---------5-3---5-7~------------------------------]
[-2~----------------------------------------------]
[-0~-00000-0-0-0-0---00000------------------------]
[-------------------------------------------------]
     ***** * * * *   *****                 
Pre-Chorus
Chorus
Outro:
Both Guitars:
[---------------------------------------------------------------]
[---------------------------------------------------------------]
[---------------------------------------------------------------]
[---------------------------------------------------7~-3~-5~-2~-]
[-7777757777775775775777757555575775777775777775775-7~-3~-5~-2~-]
[-5555535555553553553555553555553553555553555553553-5~-1~-3~-0~-]
  *************************************************
[--------------------------------]
[--------------------------------]
[--------------------------------]
[-2~--5h7-5h7-5h7-5h7-5h7p5h7-7~-]
[-0~-0---0---0---0---0--------7~-]
[-----------------------------5~-]
     *   *   *   *   *                 
Tap to rate this tab
# A B C D E F G H I J K L M N O P Q R S T U V W X Y Z