Song name
# A B C D E F G H I J K L M N O P Q R S T U V W X Y Z

Bullet For My Valentine - Say Goodnight tab

D|-------------------------------------------------------------------------|
A|-------------------------------------------------------------------------|
F|-----------------5-------------------------------------------------------|
C|/7-5h7h8-7-5-------------5-----------------------------------------------|
G|-------------8-7---8-7-8---8-7-8-7-3-5-3-5-7-5-7-8-7-8-12-13-10-12-8-10-7|
C|-------------------------------------------------------------------------|

D|-13p12----------13p12----------13p12-------16b-13-12-13-12h15------------|
A|-------13-------------13-------------13-----------------------13---------|
F|----------14-------------14-------------14-------------------------------|
C|-------------15-------------12-------------------------------------------|
G|-------------------------------------------------------------------------|
C|-------------------------------------------------------------------------|

D|-13p12----------13p12----------13p12-------16b-13-12-13-15-13-12h13-10---|
A|-------13-------------13-------------13----------------------------------|
F|----------14-------------14-------------14-------------------------------|
C|-------------15-------------12-------------------------------------------|
G|-------------------------------------------------------------------------|
C|-------------------------------------------------------------------------|
Tap to rate this tab
 
# A B C D E F G H I J K L M N O P Q R S T U V W X Y Z