Song name
# A B C D E F G H I J K L M N O P Q R S T U V W X Y Z

Bullet For My Valentine - The Poison tab

-----------------------------------------------------------------------------
                           Bullet For My Valentine
                                 The Poison
                                   (Solo)
-----------------------------------------------------------------------------
Tabbed by: JaYm3 
Tuning:    DroP C 

(I have tabbed this solo off the lesson I found here  http://www.youtube.com/watch?
v=fFVSxujkp6I ,hope you enjoy.)
Its tought by paget so it must be 100% corect!

|---------------------------------|
|-7h8t17-7h8t15-7h8t17-7h8t19--7h8|
|---------------------------------|
|---------------------------------|
|---------------------------------|
|---------------------------------|

|--------------------------------------------|
|-10br--8h10p8\7h8p7---7---------------------|
|--------------------9---9p7h9p7---7---7--9~-|
|--------------------------------9---9-------|
|--------------------------------------------|
|--------------------------------------------|

|-15-12---12--------     -15p12----12---------------------------------------|
|-------------------     -------15---15p12-15p12---12-----------------------|
|------16----16-12--(x4) ------------------------14--14p12-14p12---12-----14~
|-------------------     ----------------------------------------14--14p12--|
|-------------------     ---------------------------------------------------|
|-------------------     ---------------------------------------------------|

|------17-15-14-15-14----------14-15-17--17/19~--|
|-12-/----------------17-16-17-------------------|
|------------------------------------------------|
|------------------------------------------------|
|------------------------------------------------|
|------------------------------------------------|

|-19-15h19p15----15--------15--19-15h19p15----15-----|
|-------------17----17---17----------------17----17~-|
|---------------------16-----------------------------|
|----------------------------------------------------|
|----------------------------------------------------|
|----------------------------------------------------|

|-12---14---15---17----19-19h22p19-19---19h22p19-19--19h22p19-22b~-|
|-15b--17b--18b--20b---22b---------22b-----------22b---------------|
|------------------------------------------------------------------|
|------------------------------------------------------------------|
|------------------------------------------------------------------|
|------------------------------------------------------------------|

(Im not sure about the hammer ons and pull offs but it seems right to me)


Key:
 h- Hammer on              /   -Slide up
 t-Tap                    \   -Slide down
 P-Pull off               br-Bend release 
 b-Bend                    ~  -Vibrato     
Tap to rate this tab
 
# A B C D E F G H I J K L M N O P Q R S T U V W X Y Z