Song name
# A B C D E F G H I J K L M N O P Q R S T U V W X Y Z

Bullet For My Valentine - Hand Of Blood tab

-------------------------------------------------------------------------------
                             Hand of Blood - Bullet For My Valentine
-------------------------------------------------------------------------------
Tabbed by: Aaron Walker
E-mail: Cottengimaaron@gmail.com

Hope you all like this amazing song by Bullet For My Valentine this is my first tab and 
i figured it all out by ear and i am 99% confident that this is 100% correct hope you enjoy

Tuning:Drop C (CGCFAD)

D|--------------------------------------------------------------------------|
A|--------------------------------------------------------------------------|
F|--------------------------------------------------------------------------|
C|-0-7-8-0-5-7-0-3-5-0-2-3-0-2-5-3------------------------------------------|
G|--------------------------------------------------------------------------|
C|--------------------------------------------------------------------------|

D|--------------------------------------------------------------------------|
A|--------------------------------------------------------------------------|
F|--------------------------------------------------------------------------|
C|-0-7-8-0-5-7-0-3-5-0-2-3-2h5p2h5p2h5p2h5p2--------------------------------|
G|--------------------------------------------------------------------------|
C|--------------------------------------------------------------------------|

D|--------------------------------------------------------------------------|
A|--------------------------------------------------------------------------|
F|--------------------------------------------------------------------------|
C|-0-7-8-0-5-7-0-3-5-0-2-3-0-2-5-3------------------------------------------|
G|--------------------------------------------------------------------------|
C|--------------------------------------------------------------------------|

D|--------------------------------------------------------------------------|
A|--------------------------------------------------------------------------|
F|--------------------------------------------------------------------------|
C|-0-7-8-0-5-7-0-3-5-0-2-3--------------------------------------------------|
G|--------------------------------------------------------------------------|
C|--------------------------------------------------------------------------|

D|--------------------------------------------------------------------------|
A|--------------------------------------------------------------------------|
F|--------------------------------------------------------------------------|
C|---2-3---------------------------2-3--------------------------------------|
G|---------3-5-3--2x-2x-2-3-2-3----------3-5-3--2x-2x-2-3-2-3---------------|
C|-0-----0--------2x-2x-2-3-2-3--0-----0--------2x-2x-2-3-2-3---------------|
   .     .                       .     .
D|--------------------------------------------------------------------------|
A|--------------------------------------------------------------------------|
F|----------------------------------------------------------3---2~----------|
C|-----3-----3-----3-----3-----3/5------5-----5---5-----2-------------------|
G|-0-1---0-1---0-1---0-1---0-1------0-3---0-3---0---0-0---0---0-------------|
C|--------------------------------------------------------------------------|
   . .   . .   . .   . .   . .      . .   . .   .   . .   .   .
D|--------------------------------------------------------------------------|
A|--------------------------------------------------------------------------|
F|------------------------------/10--10-10-10-10~---------------------------|
C|-0---3~--7~--///\\\\-------------------------------------3--3-3--7--7-7---|
G|-0~--3~--7~--///\\\\-0-0-0000-------------------0-0-0000-3--3-3--7--7-7---|
C|-0~--3~--7~--///\\\\-0-0-0000-------------------0-0-0000-3--3-3--7--7-7---|
                       . . ....                   . . ....
D|--------------------------------------------------------------------------|
A|--------------------------------------------------------------------------|
F|----------/10--10-10-10-10~-----------------------------------------------|
C|-------------------------------------3--3-3--7--7-7-----------------------|
G|-0-0-0000-------------------0-0-0000-3--3-3--7--7-7-----------------------|
C|-0-0-0000-------------------0-0-0000-3--3-3--7--7-7-----------------------|
   . . ....                   . . ....
D|--------------------------------------------------------------------------|
A|--------------------------------------------------------------------------|
F|----------/7--7-7-7-7~----------------------------------------------------|
C|-------------------------------------3--3-3--7--7-7-----------------------|
G|-0-0-0000-------------------0-0-0000-3--3-3--7--7-7-----------------------|
C|-0-0-0000-------------------0-0-0000-3--3-3--7--7-7-----------------------|
   . . ....                   . . ....
D|--------------------------------------------------------------------------|
A|--------------------------------------------------------------------------|
F|----------/7--7-7-7-7~----------------------------------------------------|
C|-------------------------------------3--3-3--7--7-7-----------------------|
G|-0-0-0000-------------------0-0-0000-3--3-3--7--7-7-----------------------|
C|-0-0-0000-------------------0-0-0000-3--3-3--7--7-7-----------------------|
   . . ....                   . . ....

D|--------------------------------------------------------------------------|
A|--------------------------------------------------------------------------|
F|--------------------------------------------------------------------------|
C|-0-7-8-0-5-7-0-3-5-0-2-3-0-2-5-3------------------------------------------|
G|--------------------------------------------------------------------------|
C|--------------------------------------------------------------------------|

D|--------------------------------------------------------------------------|
A|--------------------------------------------------------------------------|
F|--------------------------------------------------------------------------|
C|-0-7-8-0-5-7-0-3-5-0-2-3--pause-------------------------------------------|
G|--------------------------------------------------------------------------|
C|--------------------------------------------------------------------------|

D|--------------------------------------------------------------------------|
A|--------------------------------------------------------------------------|
F|--------------------------------------------------------------------------|
C|-0-7-8-0-5-7-0-3-5-0-2-3-2h5p2h5p2h5p2h5p2--------------------------------|
G|--------------------------------------------------------------------------|
C|--------------------------------------------------------------------------|

D|--------------------------------------------------------------------------|
A|--------------------------------------------------------------------------|
F|--------------------------------------------------------------------------|
C|-0-7-8-0-5-7-0-3-5-0--2-3-\\\\\-------------------------------------------|
G|--------------------------\\\\\-------------------------------------------|
C|--------------------------\\\\\-------------------------------------------|

D|--------------------------------------------------------------------------|
A|--------------------------------------------------------------------------|
F|--------------------------------------------------------------------------|
C|-3-3--0-0--7-7--0-0--0-0-0-0--3-3--0-0--7-7--0-0--0-0-0-0-----------------|
G|-3-3--0-0--7-7--0-0--0-0-0-0--3-3--0-0--7-7--0-0--0-0-0-0-----------------|
C|-3-3--0-0--7-7--0-0--0-0-0-0--3-3--0-0--7-7--0-0--0-0-0-0-----------------|
                       . . . .                      . . . .
D|--------------------------------------------------------------------------|
A|--------------------------------------------------------------------------|
F|----------------------------------------------------------3---2~----------|
C|-----3-----3-----3-----3-----3/5------5-----5---5-----2-------------------|
G|-0-1---0-1---0-1---0-1---0-1------0-3---0-3---0---0-0---0---0-------------|
C|--------------------------------------------------------------------------|
   . .   . .   . .   . .   . .      . .   . .   .   . .   .   .
D|--------------------------------------------------------------------------|
A|--------------------------------------------------------------------------|
F|--------------------------------------------------------------------------|
C|-3-3--0-0--7-7--0-0--0-0-0-0--3-3--0-0--7-7--0-0--0-0-0-0-----------------|
G|-3-3--0-0--7-7--0-0--0-0-0-0--3-3--0-0--7-7--0-0--0-0-0-0-----------------|
C|-3-3--0-0--7-7--0-0--0-0-0-0--3-3--0-0--7-7--0-0--0-0-0-0-----------------|
                       . . . .                      . . . .
D|--------------------------------------------------------------------------|
A|--------------------------------------------------------------------------|
F|----------------------------------------------------------3---2~----------|
C|-----3-----3-----3-----3-----3/5------5-----5---5-----2-------------------|
G|-0-1---0-1---0-1---0-1---0-1------0-3---0-3---0---0-0---0---0-------------|
C|--------------------------------------------------------------------------|
   . .   . .   . .   . .   . .      . .   . .   .   . .   .   .
D|--------------------------------------------------------------------------|
A|--------------------------------------------------------------------------|
F|----------/10--10-10-10-10~-----------------------------------------------|
C|-------------------------------------3--3-3--7--7-7-----------------------|
G|-0-0-0000-------------------0-0-0000-3--3-3--7--7-7-----------------------|
C|-0-0-0000-------------------0-0-0000-3--3-3--7--7-7-----------------------|
   . . ....                   . . ....
D|--------------------------------------------------------------------------|
A|--------------------------------------------------------------------------|
F|----------/10--10-10-10-10~-----------------------------------------------|
C|-------------------------------------3--3-3--7--7-7-----------------------|
G|-0-0-0000-------------------0-0-0000-3--3-3--7--7-7-----------------------|
C|-0-0-0000-------------------0-0-0000-3--3-3--7--7-7-----------------------|
   . . ....                   . . ....
D|--------------------------------------------------------------------------|
A|--------------------------------------------------------------------------|
F|----------/7--7-7-7-7~----------------------------------------------------|
C|-------------------------------------3--3-3--7--7-7-----------------------|
G|-0-0-0000-------------------0-0-0000-3--3-3--7--7-7-----------------------|
C|-0-0-0000-------------------0-0-0000-3--3-3--7--7-7-----------------------|
   . . ....                   . . ....
D|--------------------------------------------------------------------------|
A|--------------------------------------------------------------------------|
F|----------/7--7-7-7-7~----------------------------------------------------|
C|-------------------------------------3--3-3--7--7-7-----------------------|
G|-0-0-0000-------------------0-0-0000-3--3-3--7--7-7-----------------------|
C|-0-0-0000-------------------0-0-0000-3--3-3--7--7-7-----------------------|
   . . ....                   . . ....

D|--------------------------------------------------------------------------|
A|--------------------------------------------------------------------------|
F|--------------------------------------------------------------------------|
C|-0-7-8-0-5-7-0-3-5-0-2-3-0-2-5-3------------------------------------------|
G|--------------------------------------------------------------------------|
C|--------------------------------------------------------------------------|

D|--------------------------------------------------------------------------|
A|--------------------------------------------------------------------------|
F|--------------------------------------------------------------------------|
C|-0-7-8-0-5-7-0-3-5-0-2-3--pause-------------------------------------------|
G|--------------------------------------------------------------------------|
C|--------------------------------------------------------------------------|

D|--------------------------------------------------------------------------|
A|--------------------------------------------------------------------------|
F|--------------------------------------------------------------------------|
C|-0-7-8-0-5-7-0-3-5-0-2-3-2h5p2h5p2h5p2h5p2--------------------------------|
G|--------------------------------------------------------------------------|
C|--------------------------------------------------------------------------|

D|--------------------------------------------------------------------------|
A|--------------------------------------------------------------------------|
F|--------------------------------------------------------------------------|
C|-0-7-8-0-5-7-0-3-5-0--2-3-\\\\\-------------------------------------------|
G|--------------------------\\\\\-------------------------------------------|
C|--------------------------\\\\\-------------------------------------------|

D|--------------------------------------------------------------------------|
A|--------------------------------------------------------------------------|
F|--------------------------------------------------------------------------|
C|-3-3--0-0--7-7--0-0--0-0-0-0--3-3--0-0--7-7--0-0--0-0-0-0-----------------|
G|-3-3--0-0--7-7--0-0--0-0-0-0--3-3--0-0--7-7--0-0--0-0-0-0-----------------|
C|-3-3--0-0--7-7--0-0--0-0-0-0--3-3--0-0--7-7--0-0--0-0-0-0-----------------|
                       . . . .                      . . . .
D|--------------------------------------------------------------------------|
A|--------------------------------------------------------------------------|
F|----------------------------------------------------------3---2~----------|
C|-----3-----3-----3-----3-----3/5------5-----5---5-----2-------------------|
G|-0-1---0-1---0-1---0-1---0-1------0-3---0-3---0---0-0---0---0-------------|
C|--------------------------------------------------------------------------|
   . .   . .   . .   . .   . .      . .   . .   .   . .   .   .
D|--------------------------------------------------------------------------|
A|--------------------------------------------------------------------------|
F|--------------------------------------------------------------------------|
C|-3-3--0-0--7-7--0-0--0-0-0-0--3-3--0-0--7-7--0-0--0-0-0-0-----------------|
G|-3-3--0-0--7-7--0-0--0-0-0-0--3-3--0-0--7-7--0-0--0-0-0-0-----------------|
C|-3-3--0-0--7-7--0-0--0-0-0-0--3-3--0-0--7-7--0-0--0-0-0-0-----------------|
                       . . . .                      . . . .
D|--------------------------------------------------------------------------|
A|--------------------------------------------------------------------------|
F|----------------------------------------------------------3---2~----------|
C|-----3-----3-----3-----3-----3/5------5-----5---5-----2-------------------|
G|-0-1---0-1---0-1---0-1---0-1------0-3---0-3---0---0-0---0---0-------------|
C|--------------------------------------------------------------------------|
   . .   . .   . .   . .   . .      . .   . .   .   . .   .   .
D|---------------------------17p13-------17p13-17p13-------17p13-17p13------|
A|---------------------------------15p13-------------15p13-------------15p13|
F|-----------3/7~-/10-9-----------------------------------------------------|
C|----------------------10--------------------------------------------------|
G|-0-0-0000-----------------------------------------------------------------|
C|-0-0-0000-----------------------------------------------------------------|
   . . ....
D|-13-----------------------------------------------------------------------|
A|-16~----------------------------------------------------------------------|
F|------------------------10h12/14~-----------------------------------------|
C|------10h12p10----10h12---------------------------------------------------|
G|---------------12---------------------------------------------------------|
C|--------------------------------------------------------------------------|

D|--------------------------------------------------------------------------|
A|-----------------------8------------------------------8-------------------|
F|-------9---10~--9-10-9---10-9-10------9---10~--9-10-9---10-9-10-----------|
C|---8-8---8------------------------7-7---7---------------------------------|
G|--------------------------------------------------------------------------|
C|--------------------------------------------------------------------------|
     . .   .                        . .   .
D|--------------------------------------------------------------------------|
A|--------------------8-----------------------13-11-10----------------------|
F|-----9---10~--9-10-9---10-9-10------9---10~----------12-10-9--------------|
C|-8-8---8-----------------------7-7---7-----------------------12-10~-------|
G|--------------------------------------------------------------------------|
C|--------------------------------------------------------------------------|
   . .   .                       . .   .
D|--------------------------------------------------------------------------|
A|--------------------------------------------------------------------------|
F|--------------------------------------------------------------------------|
C|-----2---3~--2-3-2-5-3-2-3------2---3~--2-3-2-5-3-2-3---------------------|
G|-1-1---1--------------------0-0---0---------------------------------------|
C|--------------------------------------------------------------------------|
   . .   .                    . .   .
D|--------------------------------------------------------------------------|
A|--------------------------------------------------------------------------|
F|---------------------------------------5-3-2------------------------------|
C|-----2---3~--2-3-2-5-3-2-3------2---3~-------5-3-2------------------------|
G|-1-1---1--------------------0-0---0----------------5-3--------------------|
C|--------------------------------------------------------------------------|
   . .   .                    . .   .
D|--------------------------------------------------------------------------|
A|---------------------------13-11-10-11------------------------------------|
F|--------------------------------------------------------------------------|
C|-8-8-10-8-10/12~--10-12-10------------------------------------------------|
G|--------------------------------------------------------------------------|
C|--------------------------------------------------------------------------|
   . .    .
D|--------------------------------------------------------------------------|
A|---------------------------13-11-10-11------------------------------------|
F|--------------------------------------------------------------------------|
C|-7-7-10-7-10/12~--10-12-10------------------------------------------------|
G|--------------------------------------------------------------------------|
C|--------------------------------------------------------------------------|
   . .    .
D|--------------------------------------------------------------------------|
A|---------------------------13-11-10-11------------------------------------|
F|--------------------------------------------------------------------------|
C|-8-8-10-8-10/12~--10-12-10------------------------------------------------|
G|--------------------------------------------------------------------------|
C|--------------------------------------------------------------------------|
   . .    .
D|--------------------------------------------------------------------------|
A|--------------------------------------------------------------------------|
F|-----------------10-9-7---------------------------------------------------|
C|-7-7-10-7-10/12~--------10-8-7--------------------------------------------|
G|-------------------------------10-8---------------------------------------|
C|--------------------------------------------------------------------------|
   . .    .
D|--------------------------------------------------------------------------|
A|--------------------------------------------------------------------------|
F|-10p9---12p9---10p9---12p9---10p9-10p9-10p9-------------------------------|
C|------9------9------9------9----------------------------------------------|
G|--------------------------------------------------------------------------|
C|--------------------------------------------------------------------------|
        .      .      .      .
D|--------------------------------------------------------------------------|
A|----------------------13p10-----------------------------------------------|
F|-10p9---12p9---10p9-----------10p9-12p9-10p9------------------------------|
C|------9------9------9-------9---------------------------------------------|
G|--------------------------------------------------------------------------|
C|--------------------------------------------------------------------------|
        .      .      .       .
D|--------------------------------------------------------------------------|
A|--------------------------------------------------------------------------|
F|-10p9---12p9---10p9---12p9---10p9-10p9-10p9-------------------------------|
C|------9------9------9------9----------------------------------------------|
G|--------------------------------------------------------------------------|
C|--------------------------------------------------------------------------|
        .      .      .      .
D|--------------------------------------------------------------------------|
A|--------13p10-------------------------------------------------------------|
F|-10p9-----------10p9---12p9---10p9-10p9--0-7-8-5-7-3-5-2-3--pause---------|
C|------9-------9------9------9---------------------------------------------|
G|--------------------------------------------------------------------------|
C|--------------------------------------------------------------------------|
        .       .      .      .            . . . . . . . . .
D|--------------------------------------------------------------------------|
A|--------------------------------------------------------------------------|
F|--------------------------------------------------------------------------|
C|-3-3--0-0--7-7--0-0--0-0-0-0--3-3--0-0--7-7--0-0--0-0-0-0-----------------|
G|-3-3--0-0--7-7--0-0--0-0-0-0--3-3--0-0--7-7--0-0--0-0-0-0-----------------|
C|-3-3--0-0--7-7--0-0--0-0-0-0--3-3--0-0--7-7--0-0--0-0-0-0-----------------|
                       . . . .                      . . . .
D|--------------------------------------------------------------------------|
A|--------------------------------------------------------------------------|
F|----------------------------------------------------------3---2~----------|
C|-----3-----3-----3-----3-----3/5------5-----5---5-----2-------------------|
G|-0-1---0-1---0-1---0-1---0-1------0-3---0-3---0---0-0---0---0-------------|
C|--------------------------------------------------------------------------|
   . .   . .   . .   . .   . .      . .   . .   .   . .   .   .
D|--------------------------------------------------------------------------|
A|--------------------------------------------------------------------------|
F|--------------------------------------------------------------------------|
C|-3-3--0-0--7-7--0-0--0-0-0-0--3-3--0-0--7-7--0-0--0-0-0-0-----------------|
G|-3-3--0-0--7-7--0-0--0-0-0-0--3-3--0-0--7-7--0-0--0-0-0-0-----------------|
C|-3-3--0-0--7-7--0-0--0-0-0-0--3-3--0-0--7-7--0-0--0-0-0-0-----------------|
                       . . . .                      . . . .
D|--------------------------------------------------------------------------|
A|--------------------------------------------------------------------------|
F|----------------------------------------------------------3---2~----------|
C|-----3-----3-----3-----3-----3/5------5-----5---5-----2-------------------|
G|-0-1---0-1---0-1---0-1---0-1------0-3---0-3---0---0-0---0---0-------------|
C|--------------------------------------------------------------------------|
   . .   . .   . .   . .   . .      . .   . .   .   . .   .   .
D|--------------------------------------------------------------------------|
A|--------------------------------------------------------------------------|
F|----------------------------THE-END---------------------------------------|
C|--------------------------------------------------------------------------|
G|-0-0-0000-----------------------------------------------------------------|
C|-0-0-0000-----------------------------------------------------------------|
   . . ....

************************************

| /   slide up
| \   slide down
| h   hammer-on
| p   pull-off
| ~   vibrato
| +   harmonic
| x   Mute note
| b   Bend
| pb  Pre-bend
| br  Bend release
| pbr Pre-bend release
| brb Bend release bend
| .   Palm mute
************************************
Tap to rate this tab
# A B C D E F G H I J K L M N O P Q R S T U V W X Y Z