Song name
# A B C D E F G H I J K L M N O P Q R S T U V W X Y Z

Bullet For My Valentine - Pretty On The Outside tab

-----------------------------------------------------------------------------
               Bullet For My Valentine - Pretty On The Outside
-----------------------------------------------------------------------------

Tabbed: Metalrock4ever

Tuning: CGCFAD

Intro:
D|-------------------|
A|-------------------|
F|-11-11-11-11-11-11-|
C|-11-11-11-11-11-11-|
G|-9--9--9--9--9--9--|
C|-------------------|

Solo Part:
D|-9+~-|
A|-----|
F|-----|
C|-----|
G|-----|
C|-----|

Rhythm Guitar:
D|-----------------------------|
A|-----------------------------|
F|-----------------------------|
C|-44-4-4-44-4-4-00-0-0-00-0-0-|  x2
G|-44-4-4-44-4-4-00-0-0-00-0-0-|
C|-44-4-4-44-4-4-00-0-0-00-0-0-|

D|------------------------------------------|
A|------------------------------------------|
F|------------------------------------------|
C|-00-0-0-00-0-0-2-4-22-2-2-22-2-2--4--4--4-|
G|-00-0-0-00-0-0-2-4-22-2-2-22-2-2--4--4--4-|
C|-00-0-0-00-0-0-2-4-22-2-2-22-2-2--4--4--4-|

Solo Part:
D|-----------------------------------------|
A|-----------------------------------------|
F|-----------------------------------------|
C|-4-4-4-4-4-4-7-7-7-6-6-6-2-2-2-2-2-2-2-2-|
G|-----------------------------------------|
C|-----------------------------------------|

D|----------------------------------------|
A|----------------------------------------|
F|----------------------------------------|
C|-4-4-4-4-4-4-6-6-6-7-7-7-11-11-11-9-9-9-|
G|----------------------------------------|
C|----------------------------------------|

D|----------------------------------------------------------|
A|----------------------------------------------------------|
F|----------------------------------------------------------|
C|-7-7-7-7-7-7-6-6-6-2-2-2-2-2-2--4-6-7-4x4x4x-4-6-7-4x4x4x-|
G|----------------------------------------------------------|
C|----------------------------------------------------------|


Verse:
D|---------------------------------------------------------|
A|---------------------------------------------------------|
F|---------------------------------------------------------|
C|-4x4x4x-4x4x4x-0x0x0x-0x0x0x-4x4x4x-4x4x4x-0x0x0x-0x0x0x-|   x4
G|-4x4x4x-4x4x4x-0x0x0x-0x0x0x-4x4x4x-4x4x4x-0x0x0x-0x0x0x-|
C|-4x4x4x-4x4x4x-0x0x0x-0x0x0x-4x4x4x-4x4x4x-0x0x0x-0x0x0x-|

Solo Part 1:
D|-----------------------------------------------------|
A|-----------------------------------------------------|
F|-----------------------------------------------------|
C|-4-6-7-4x4x4x-4-6-7-4x4x4x-4-6-2-2x2x2x-4-6-2-2x2x2x-| x4
G|-----------------------------------------------------|
C|-----------------------------------------------------|

Solo Part 2:
D|-----------------------------------------------------|
A|-----------------------------------------------------|
F|-----------------------------------------------------|
C|-4-6-7-4x4x4x-4-6-7-4x4x4x-4-6-2-2x2x2x-4-6-2-2x2x2x-|  x2
G|-----------------------------------------------------|
C|-----------------------------------------------------|

D|-----------------------------------------------------|
A|-----2------------2----------------------------------|
F|-2-4----------2-4----------2-4-1--------2-4-1--------|
C|-------4x4x4x-------4x4x4x-------2x2x2x-------2x2x2x-|  x2
G|-----------------------------------------------------|
C|-----------------------------------------------------|


Pre-Chorus:
D|----------------|
A|----5~----5~----|
F|----4~----4~----|
C|-2~----2~----0~-|
G|-2~----2~----0~-|
C|-2~----2~----0~-|


Chorus:
D|-----------------------------|
A|-----------------------------|
F|-----------------------------|
C|-44-4-4-44-4-4-00-0-0-00-0-0-|  x2
G|-44-4-4-44-4-4-00-0-0-00-0-0-|
C|-44-4-4-44-4-4-00-0-0-00-0-0-|

D|------------------------------------------|
A|------------------------------------------|
F|------------------------------------------|
C|-00-0-0-00-0-0-2-4-22-2-2-22-2-2--4--4--4-|
G|-00-0-0-00-0-0-2-4-22-2-2-22-2-2--4--4--4-|
C|-00-0-0-00-0-0-2-4-22-2-2-22-2-2--4--4--4-|

Solo Part:
D|-----------------------------------------|
A|-----------------------------------------|
F|-----------------------------------------|
C|-4-4-4-4-4-4-7-7-7-6-6-6-2-2-2-2-2-2-2-2-|
G|-----------------------------------------|
C|-----------------------------------------|

D|----------------------------------------|
A|----------------------------------------|
F|----------------------------------------|
C|-4-4-4-4-4-4-6-6-6-7-7-7-11-11-11-9-9-9-|
G|----------------------------------------|
C|----------------------------------------|

D|----------------------------------------------------------|
A|----------------------------------------------------------|
F|----------------------------------------------------------|
C|-7-7-7-7-7-7-6-6-6-2-2-2-2-2-2--4-6-7-4x4x4x-4-6-7-4x4x4x-|
G|----------------------------------------------------------|
C|----------------------------------------------------------|


Verse 2:
D|---------------------------------------------------------|
A|---------------------------------------------------------|
F|---------------------------------------------------------|
C|-4x4x4x-4x4x4x-0x0x0x-0x0x0x-4x4x4x-4x4x4x-0x0x0x-0x0x0x-|   x4
G|-4x4x4x-4x4x4x-0x0x0x-0x0x0x-4x4x4x-4x4x4x-0x0x0x-0x0x0x-|
C|-4x4x4x-4x4x4x-0x0x0x-0x0x0x-4x4x4x-4x4x4x-0x0x0x-0x0x0x-|

Solo Part:
D|-----------------------------------------------------|
A|-----------------------------------------------------|
F|-----------------------------------------------------|
C|-4-6-7-4x4x4x-4-6-7-4x4x4x-4-6-2-2x2x2x-4-6-2-2x2x2x-| x4
G|-----------------------------------------------------|
C|-----------------------------------------------------|


Pre-Chorus:
D|----------------|
A|----5~----5~----|
F|----4~----4~----|
C|-2~----2~----0~-|
G|-2~----2~----0~-|
C|-2~----2~----0~-|


Chorus:
D|-----------------------------|
A|-----------------------------|
F|-----------------------------|
C|-44-4-4-44-4-4-00-0-0-00-0-0-|  x2
G|-44-4-4-44-4-4-00-0-0-00-0-0-|
C|-44-4-4-44-4-4-00-0-0-00-0-0-|

D|---------------------------------|
A|---------------------------------|
F|---------------------------------|
C|-00-0-0-00-0-0-2-4-22-2-2-22-2-2-|
G|-00-0-0-00-0-0-2-4-22-2-2-22-2-2-|
C|-00-0-0-00-0-0-2-4-22-2-2-22-2-2-|

Solo Part:
D|-----------------------------------------|
A|-----------------------------------------|
F|-----------------------------------------|
C|-4-4-4-4-4-4-7-7-7-6-6-6-2-2-2-2-2-2-2-2-|
G|-----------------------------------------|
C|-----------------------------------------|

D|----------------------------------------|
A|----------------------------------------|
F|----------------------------------------|
C|-4-4-4-4-4-4-6-6-6-7-7-7-11-11-11-9-9-9-|
G|----------------------------------------|
C|----------------------------------------|

D|-------------------------------|
A|-------------------------------|
F|-------------------------------|
C|-7-7-7-7-7-7-6-6-6-2-2-2-2-2-2-|
G|-------------------------------|
C|-------------------------------|


Bridge:
D|-------------|
A|-------------|
F|----------6~-|
C|-4~-0~-2~-6~-|  x2
G|-4~-0~-2~-4~-|
C|-4~-0~-2~----|

D|-------------------------------------------------------------|
A|-------------------------------------------------------------|
F|-------------------------------------------------------------|
C|-4x4x4x-4x4x4x-0x0x0x-0x0x0x-2x2x2x-2x2x2x-11x11x11x-11x9x7x-|  
G|-4x4x4x-4x4x4x-0x0x0x-0x0x0x-2x2x2x-2x2x2x-11x11x11x-11x9x7x-|
C|-4x4x4x-4x4x4x-0x0x0x-0x0x0x-2x2x2x-2x2x2x-11x11x11x-11x9x7x-|

D|---------------------------------------------------------------|
A|---------------------------------------------------------------|
F|---------------------------------------------------------------|
C|-4x4x4x-4x4x4x-0x0x0x-0x0x0x-2x2x2x-2x2x2x-11x11x11x-11x11x11x-|
G|-4x4x4x-4x4x4x-0x0x0x-0x0x0x-2x2x2x-2x2x2x-11x11x11x-11x11x11x-|
C|-4x4x4x-4x4x4x-0x0x0x-0x0x0x-2x2x2x-2x2x2x-11x11x11x-11x11x11x-|

Solo Part 1:
(Repeat this 4 times)
D|-----------------------------------------------------|
A|-----------------------------------------------------|
F|-4-6-7-4x4x4x-4-6-7-4x4x4x---------------------------|
C|---------------------------6-7-9-6x6x6x-6-7-9-6x6x6x-|
G|-----------------------------------------------------|
C|-----------------------------------------------------|

D|-------------------------------------------------------|
A|-------------------------------------------------------|
F|-------------------------------------------------------|
C|-7-9-11-7x7x7x-7-9-11-7x7x7x---6-7----------6-7-4x4x4x-|
G|-----------------------------9-----9x9x9x-9------------|
C|-------------------------------------------------------|

Solo Part 2:
(Repeat twice. Play after Solo Part 1 plays it's solo twice.)
D|---------------------------------------|
A|-777-777-999-999-101010-101010-999-999-|
F|---------------------------------------|
C|---------------------------------------|
G|---------------------------------------|
C|---------------------------------------|


Pre-Chorus:
D|-------------------|
A|-------------------|
F|-11-11-11-11-11-11-|
C|-11-11-11-11-11-11-|
G|-9--9--9--9--9--9--|
C|-------------------|


Final Chorus:
D|-----------------------------|
A|-----------------------------|
F|-----------------------------|
C|-44-4-4-44-4-4-00-0-0-00-0-0-|  x2
G|-44-4-4-44-4-4-00-0-0-00-0-0-|
C|-44-4-4-44-4-4-00-0-0-00-0-0-|

D|---------------------------------|
A|---------------------------------|
F|---------------------------------|
C|-00-0-0-00-0-0-2-4-22-2-2-22-2-2-|
G|-00-0-0-00-0-0-2-4-22-2-2-22-2-2-|
C|-00-0-0-00-0-0-2-4-22-2-2-22-2-2-|

Solo Part:
D|-----------------------------------------|
A|-----------------------------------------|
F|-----------------------------------------|
C|-4-4-4-4-4-4-7-7-7-6-6-6-2-2-2-2-2-2-2-2-|
G|-----------------------------------------|
C|-----------------------------------------|

D|----------------------------------------|
A|----------------------------------------|
F|----------------------------------------|
C|-4-4-4-4-4-4-6-6-6-7-7-7-11-11-11-9-9-9-|
G|----------------------------------------|
C|----------------------------------------|

D|-------------------------------|
A|-------------------------------|
F|-------------------------------|
C|-7-7-7-7-7-7-6-6-6-2-2-2-2-2-2-|
G|-------------------------------|
C|-------------------------------|


Outro:
D|---------------------------------------------------------|
A|---------------------------------------------------------|
F|---------------------------------------------------------|
C|-4x4x4x-4x4x4x-0x0x0x-0x0x0x-4x4x4x-4x4x4x-0x0x0x-0x0x0x-|   x2
G|-4x4x4x-4x4x4x-0x0x0x-0x0x0x-4x4x4x-4x4x4x-0x0x0x-0x0x0x-|
C|-4x4x4x-4x4x4x-0x0x0x-0x0x0x-4x4x4x-4x4x4x-0x0x0x-0x0x0x-|

D|---------------------------------------------------------|
A|---------------------------------------------------------|
F|---------------------------------------------------------|
C|-4x4x4x-4x4x4x-0x0x0x-0x0x0x-4x4x4x-4x4x4x-0x0x0x-4x6x2x-|   
G|-4x4x4x-4x4x4x-0x0x0x-0x0x0x-4x4x4x-4x4x4x-0x0x0x-4x6x2x-|
C|-4x4x4x-4x4x4x-0x0x0x-0x0x0x-4x4x4x-4x4x4x-0x0x0x-4x6x2x-|

Solo Part 1:
D|-----------------------------------------------------|
A|-----------------------------------------------------|
F|-----------------------------------------------------|
C|-4-6-7-4x4x4x-4-6-7-4x4x4x-4-6-2-2x2x2x-4-6-2-2x2x2x-| x3
G|-----------------------------------------------------|
C|-----------------------------------------------------|

D|----------------------------------------------|
A|----------------------------------------------|
F|----------------------------------------------|
C|-4-6-7-4x4x4x-4-6-7-4x4x4x-4-6-2-2x2x2x-4-6-2-| 
G|----------------------------------------------|
C|----------------------------------------------|

Solo Part 2:
D|-----------------------------------------------------|
A|-----------------------------------------------------|
F|-----------------------------------------------------|
C|-4-6-7-4x4x4x-4-6-7-4x4x4x-4-6-2-2x2x2x-4-6-2-2x2x2x-|  x2
G|-----------------------------------------------------|
C|-----------------------------------------------------|

D|-----------------------------------------------------|
A|-----2------------2----------------------------------|
F|-2-4----------2-4----------2-4-1--------2-4-1--------|
C|-------4x4x4x-------4x4x4x-------2x2x2x-------2x2x2x-|  
G|-----------------------------------------------------|
C|-----------------------------------------------------|

D|----------------------------------------------|
A|-----2------------2---------------------------|
F|-2-4----------2-4----------2-4-1--------2-4-1-|
C|-------4x4x4x-------4x4x4x-------2x2x2x-------|  
G|----------------------------------------------|
C|----------------------------------------------|

************************************

| /   slide up
| \   slide down
| h   hammer-on
| ~   vibrato
| +   harmonic
| x   Mute note
| b   Bend

************************************

If you have any comments/corrections, please say in either the comments box 
or leave me a message. Good luck and enjoy!
Tap to rate this tab
# A B C D E F G H I J K L M N O P Q R S T U V W X Y Z