Song name
# A B C D E F G H I J K L M N O P Q R S T U V W X Y Z

Bullet For My Valentine - Temper Temper tab

Drop C Tuning

To see how the song is played watch my video: https://www.youtube.com/watch?v=mxquv4unWmM

Main Riff (Listen to song to get picking down)
*Palm Mute Picking*

D------------------------------|
A------------------------------|
F------------------------------|
C-0-7---7-12-13---0-7----------|
G-----8----------------8-7-8---|
C------------------------------|

Backing Guitar in Intro and used in Verses

Let each ring out
*/ means slide up*

D--------------------|
A--------------------|
F--------------------|
C-7---3---5---7---8/-|
G-5---3---5---7---8/-|
C-0---3---5---7---8/-|

Pre-Verse Riff

*by the fret number means pinch harmonic
*under the number means palm mute

D------------------------------------------------------------------------|
A------------------------------------------------------------------------|
F------------------------------------------------------------------------|
C------------------------0------------5-7-7-3----------------------------|
G--3-5-/8-5-3-5-5-------0--3-5-/8-5--3-5-5-3--3-5-/8-5-3-5-5*-0-0--------|
C------------------0-0--0-------------------3-------------------0-0-3*---|
                   *  *                                                                  
            *  *

D--------------------|
A--------------------|
F--------------------|
C----------5-7-7-3---|
G-3-5-/8-5-3-5-5-3---|
C-----------------3--|


Harmony to Pre-Verse Riff

*by the fret number means pinch harmonic
*under the number means palm mute

D---------------------------------------------------------------------|
A---------------------------------------------------------------------|
F---------------------------------------------------------------------|
C-2-3-/7-3-2-3-3-------0--2-3-/7-3--5-7-7-3--2-3-/7-3-2-3-3*----------|
G----------------------0------------3-5-5-3----------------------3*---|
C-----------------0-0--0------------------3------------------0-0------|
                                 *  *                                                    
                      *  *

D---------------------|
A---------------------|
F---------------------|
C-2-3-/7-3--5-7-7-3---|
G-----------3-5-5-3---|
C-----------------3---|


Main Riff again
Backing Guitar comes in

Chorus Riff (Both Guitars Play)

D---------------------------------------------|
A---------------------------------------------|
F---------------------------------------------|
C-5-7-10-7-5-7-7-------0--5-7-10-7-5-7-7-3----|
G-3-5--8-5-3-5-5-------0--3-5--8-5-3-5-5-3----|
C-----------------0-0--0------------------3---|
                                 *  *

Final time through chorus end with

D--------|
A--------|
F--8--10-|
C--X--X--|
G--6--8--|
C--------|

The song repeats itself basically a few times.

Outro Riff (Palm Muted)

D---------------------|
A---------------------|
F---------------------|
C------------0-1--0---|
G---0---0---------0---|
C-0---2---2-------0---|






Basically all you need to know for the song. Listen to it a few times to get the 
strumming patterns down and to get the timing. Any questions just message me on youtube im more 
likely to see it there
Tap to rate this tab
# A B C D E F G H I J K L M N O P Q R S T U V W X Y Z