Song name
# A B C D E F G H I J K L M N O P Q R S T U V W X Y Z

Bullet For My Valentine - Temper Temper tab

-------------------------------------------------------------------------------
                   Bullet For My Valentine - Temper Temper
-------------------------------------------------------------------------------
Tabbed by: Sam Holmes
E-mail: samholmes96@hotmail.co.uk

Tuning: DROP C

This is Bullet For My Valentine's new song TEMPER TEMPER (first aired on BBC Radio 1 on 22/10/12).
Many people aren't too keen on it, but personally I LOVE IT.

Main Riff / Verses... (this is also palm muted on the bridge)

(figure out the strumming speed and amount of notes for yourself)

D|------------------------------------------------|---------------------------|
A|------------------------------------------------|---------------------------|
F|---------------------------|TWELVES|------------|---------------------------|
C|--00000077777733333377777712121212121213~-------|-00000077777733333322222b--|
G|------------------------------------------------|---------------------------|
C|------------------------------------------------|---------------------------|

Repeat Verse 4 times but on the last one bend the Low C string on the 7th fret a full 
tone up.

Chorus


D|-------------------------------|--------------------------------------------|
A|-------------------------------|--------------------------------------------|
F|-5/7--10--7--5--7-7------------|-5/7--10--7--5/7\5--------------------------|
C|-5/7--10--7--5--7-7------------|-5/7--10--7--5/7\5---3----------------------|
G|-3/5--8---5--3--5-5--0-0-0-0---|-3/5--8---5--3/5\3---3----------------------|
C|---------------------0-0-0-0---|---------------------3----------------------|

D|------------------------------|---------------------------------------------|
A|------------------------------|---------------------------------------------|
F|-5/7--10--7--5--7-7-----------|-5/7--10-7--8-8-8-8-8-8-8-8------------------|
C|-5/7--10--7--5--7-7-----------|-5/7--10-7--8-8-8-8-8-8-8-8------------------|
G|-3/5--8---5--3--5-5--0-0-0-0--|-3/5--8--5--6-6-6-6-6-6-6-6------------------|
C|---------------------0-0-0-0--|---------------------------------------------|

BRIDGE - same as verses just palm muted.

REPEAT CHORUS X2

End riff goes something like this on the Low C string...
G|----------------------------------0--|
C|-000000777777333777333-12121212b--0--|

Make sure that last open C is strummed hard for a more heavier ending.

This is the first LEAD GUITAR tab for this song on this site, so feel free to add RHYTHM 
GUITAR to this if you wish. (RHYTHM TO THIS SONG IS REALLY EASY TO WORK OUT IF YOU'RE A 
INTERMEDIATE + PLAYER.)

:) \m/

************************************

| /   slide up
| \   slide down
| h   hammer-on
| p   pull-off
| ~   vibrato
| +   harmonic
| x   Mute note
| b   Bend
| pb  Pre-bend
| br  Bend release
| pbr Pre-bend release
| brb Bend release bend

************************************
Tap to rate this tab
 
# A B C D E F G H I J K L M N O P Q R S T U V W X Y Z