Song name
# A B C D E F G H I J K L M N O P Q R S T U V W X Y Z

Bullet For My Valentine - Temper Temper tab

----------------------------------------------------------------------------
                   Bullet for my Valentine - Temper Temper
----------------------------------------------------------------------------

Tabbed: Metalrock4ever

Tuning: CGCFAD

Intro/riff:
D|-------------------------------------------|
A|-----------------33-44---------------------|
F|-----333-----333-----------333-------------|
C|-000-----333-----------000-----333-2222-33-|  x2
G|-------------------------------------------|
C|-------------------------------------------|

D|----------------------------------------------|
A|-----------------33-44------------------------|
F|-----333-----333-----------333-------------2/-|
C|-000-----333-----------000-----333-2222-33----|  
G|----------------------------------------------|
C|----------------------------------------------|

Rhythm Guitar:
(Play after riff is played twice. I don't know whether he actually plays
the extra notes on the F-string. You can leave them out if you wish.)
D|----------------|
A|----------------|
F|-2~-5~-7~-9~----|
C|-0~-3~-5~-7~-7/-|
G|-0~-3~-5~-7~-7/-|
C|-0~-3~-5~-7~-7/-|

Riff 2:
Guitar 1:
D|-----------------------------------------------------------------------|
A|-----------------------------------------------------------------------|
F|-----------------------------------------------------------------------|
C|-----3-------000-----3---------3~-----3-------------------3---------3~-|
G|-3h5---5-3h5-000-3h5---5-3-5-3-3~-3h5---5-3h5-5+~-----3h5---5-3-5-3-3~-|
C|-------------000---------------3~-----------------3+~---------------3~-|

Guitar 2:
D|-----------------------------------------------------------------------|
A|-----------------------------------------------------------------------|
F|-----2---------------2----------------2-------------------2------------|
C|-2h3---3-2h3-000-2h3---3-------3~-2h3---3-2h3-3+~-0+~-2h3---3-------3~-|
G|-------------000---------3-5-3-3~-----------------------------3-5-3-3~-|
C|-------------000---------------3~-----------------------------------3~-|


Verse:
D|-------------------------------------------|
A|-----------------33-44---------------------|
F|-----333-----333-----------333-------------|
C|-000-----333-----------000-----333-2222-33-|  x5
G|-------------------------------------------|
C|-------------------------------------------|

D|----------------------------------------------|
A|-----------------33-44------------------------|
F|-----333-----333-----------333-------------2/-|
C|-000-----333-----------000-----333-2222-33----|  
G|----------------------------------------------|
C|----------------------------------------------|

Rhythm Guitar:
(Play after riff is played three times)
D|----------------|
A|----------------|
F|-2~-5~-7~-9~----|
C|-0~-3~-5~-7~-7/-|
G|-0~-3~-5~-7~-7/-|
C|-0~-3~-5~-7~-7/-|


Chorus:
Guitar 1:
D|----------------------------------------------------------------------|
A|----------------------------------------------------------------------|
F|----------------------------------------------------------------------|
C|-----3-------000-----3---------3~-----3-------000-----3---------------|
G|-3h5---5-3h5-000-3h5---5-3-5-3-3~-3h5---5-3h5-000-3h5---3-5-6666-8888-|
C|-------------000---------------3~-------------000---------------------|

Guitar 2:
D|----------------------------------------------------------------------|
A|------------------------------------------------------------4444-6666-|
F|-----2---------------2----------------2---------------2---------------|
C|-2h3---3-2h3-000-2h3---3-------3~-2h3---3-2h3-000-2h3---2-3-----------|
G|-------------000---------3-5-3-3~-------------000---------------------|
C|-------------000---------------3~-------------000---------------------|


Verse 2:
D|-------------------------------------------|
A|-----------------33-44---------------------|
F|-----333-----333-----------333-------------|
C|-000-----333-----------000-----333-2222-33-|  x5
G|-------------------------------------------|
C|-------------------------------------------|

D|----------------------------------------------|
A|-----------------33-44------------------------|
F|-----333-----333-----------333-------------2/-|
C|-000-----333-----------000-----333-2222-33----|  
G|----------------------------------------------|
C|----------------------------------------------|

Rhythm Guitar:
(Play after riff is played three times)
D|----------------|
A|----------------|
F|-2~-5~-7~-9~----|
C|-0~-3~-5~-7~-7/-|
G|-0~-3~-5~-7~-7/-|
C|-0~-3~-5~-7~-7/-|


Chorus 2:
Guitar 1:
D|--------------------------------------------------------------------|
A|--------------------------------------------------------------------|
F|--------------------------------------------------------------------|
C|-----3-------000-----3---------3~-----3-------000-----3-------------|
G|-3h5---5-3h5-000-3h5---5-3-5-3-3~-3h5---5-3h5-000-3h5---3-5-6666-88-|
C|-------------000---------------3~-------------000-------------------|

Guitar 2:
D|--------------------------------------------------------------------|
A|------------------------------------------------------------4444-66-|
F|-----2---------------2----------------2---------------2-------------|
C|-2h3---3-2h3-000-2h3---3-------3~-2h3---3-2h3-000-2h3---2-3---------|
G|-------------000---------3-5-3-3~-------------000-------------------|
C|-------------000---------------3~-------------000-------------------|


Bridge:
Guitar 1:
D|----------------------------------------------------------------------|
A|-----7/10+~-13\~------------------------------------------------------|
F|-7\~------------------------------------------------------------------|
C|------------------7--7--7--7-7--7--7--7--7-7--7--7--7-7--7--7--7-7777-|
G|------------------5--5--5--5-5--5--5--5--5-5--5--5--5-5--5--5--5-5555-|
C|----------------------------------------------------------------------|

Guitar 2:
(Listen to music for when you come in)
D|------------------------------------------------|
A|----------------------33-44---------------------|
F|----------333-----333-----------333-------------|
C|-0~---000-----333-----------000-----333-2222-33-|  x4
G|-0~---------------------------------------------|
C|-0~---------------------------------------------|


Pre-Chorus:
D|----|
A|----|
F|----|
C|-/~-|
G|-/~-|
C|-/~-|


Final Chorus:
Guitar 1:
D|--------------------------------------------------------------------|
A|--------------------------------------------------------------------|
F|--------------------------------------------------------------------|
C|-----3-------000-----3---------3~-----3-------000-----3-------------|  x2
G|-3h5---5-3h5-000-3h5---5-3-5-3-3~-3h5---5-3h5-000-3h5---3-5-6666-88-|
C|-------------000---------------3~-------------000-------------------|

Guitar 2:
D|--------------------------------------------------------------------|
A|------------------------------------------------------------4444-66-|
F|-----2---------------2----------------2---------------2-------------|
C|-2h3---3-2h3-000-2h3---3-------3~-2h3---3-2h3-000-2h3---2-3---------|  x2
G|-------------000---------3-5-3-3~-------------000-------------------|
C|-------------000---------------3~-------------000-------------------|


Outro:
D|------------------------|
A|------------------------|
F|------------------------|
C|------------------0-1---|
G|-----000----00----------|
C|-000-----33----33-----0-|

************************************

| /   slide up
| \   slide down
| h   hammer-on
| ~   vibrato
| +   harmonic
| x   Mute note
| b   Bend

************************************

If you have any comments/corrections, please say in either the comments box 
or leave me a message. Good luck and enjoy!
Tap to rate this tab
# A B C D E F G H I J K L M N O P Q R S T U V W X Y Z