Song name
# A B C D E F G H I J K L M N O P Q R S T U V W X Y Z

Bullet For My Valentine - No Easy Way Out tab

I'm not sure about the into picking so I'm gonna leave that out, but iv got the last 
part of the intro, the verse and chorus.
It's a load easier than it sounds.

~ : Let the note ring on

Intro

D ----5--7-7--3-3--7-5----5--7-7--3-3--7-5----5--7-7--3-3--7-5--|
A ----5--7-7--3-3--7-5----5--7-7--3-3--7-5----5--7-7--3-3--7-5--|
D ----5--7-7--3-3--7-5----5--7-7--3-3--7-5----5--7-7--3-3--7-5--|
G --------------------------------------------------------------|
B --------------------------------------------------------------|
E --------------------------------------------------------------|

--5--7-7--3-3--7-5~~~~~0-0--0-0--0-0--0-0--0-0-0-0--|
--5--7-7--3-3--7-5~~~~~0-0--0-0--0-0--0-0--0-0-0-0--|
--5--7-7--3-3--7-5~~~~~0-0--0-0--0-0--0-0--0-0-0-0--|
----------------------------------------------------|
----------------------------------------------------|
----------------------------------------------------|


Verse

D--0-0--0-0--0-0--0-0--0-0--0-0--0-0--0-0--0-0-0-0--0~~~3~~~7~~~5~~~-|
A--0-0--0-0--0-0--0-0--0-0--0-0--0-0--0-0--0-0-0-0--0~~~3~~~7~~~5~~~-|
D--0-0--0-0--0-0--0-0--0-0--0-0--0-0--0-0--0-0-0-0--0~~~3~~~7~~~5~~~-|
G -------------------------------------------------------------------|
B -------------------------------------------------------------------|
E -------------------------------------------------------------------|

Chorus

Just repeat the into riff throughout the duration of the chorus
Tap to rate this tab
 
# A B C D E F G H I J K L M N O P Q R S T U V W X Y Z