Song name
# A B C D E F G H I J K L M N O P Q R S T U V W X Y Z

Bullet For My Valentine - Riot tab

Riot - Bullet For My Valentine
of the album Temper Temper.

Tuning: Drop C (CGCFAD)
Repeat each part as many times as necessary.

|-----------------|
| /   - Slide     |
| b   - bend      |
| ... - Palm Mute |
| ~   - Let Ring  |
|-----------------|

Intro:
|----------------------------------------------------|
|----------------------------------------------------|
|----------------------------------------------------|
|-3-----3/5------------------------------------------|
|---1-0-----3----------------------------------------|
|-------------0--0--0--0--0--0--0--0--0--0--0--0--0--|


Pre-Verse:
|----------------------|
|----------------------|
|----------------5~~~--|
|-3-----3/5------3~~~--|
|---1-0-----3----1~~~--|
|-------------0--------|


Verse
|---------------------------------------------------|
|---------------------------------------------2x----|
|---------------------------------------------------|
|-3---------3------PAUSE---------3---------3------5-|
|---5------------------------------5--------------3-|
|-----0---0---0----------------------0---0---0------|

|---------------------------------------------------|
|---------------------------------------------------|
|---------------------------------------------------|
|-3---------3-------3---5---6----3---------3------5-|
|---5------------------------------5--------------3-|
|-----0---0---0---0---0---0---0------0---0---0------|

|--------------------------------------------------------|
|--------------------------------------------------------|
|-----------------------------------------------------5~-|
|-3---------3-------3---5---6----3---------3------5-7-3~-|
|---5------------------------------5--------------3-5-1~-|
|-----0---0---0---0---0---0---0------0---0---0-----------|


Chorus:
Its  the Intro twice with this at the end:
('Here comes the sirens, here comes the law')
|------------------------------------------------|
|------------------------------------------------|
|------------------------------------------------|
|----------------------------------3-----3/5-----|
|------------------------------------1-0-----3---|
|--0-0-0-000--0-0-0-000--0-0-0-000-------------0-|
   . . . ...  . . . ...  . . . ...
|-------------------------------------------------|
|-------------------------------------------------|
|-------------------------------------------------|
|-------------------------------------3-----3/5---|
|---------------------------------------1-0-----3-|
|-0--0--0--0--0--0--0--0--0--0--0--0--------------|


Verse
Chorus

Solo: (I'm not 100% on this and you'll have to figure out the timing yourself, Sorry)

|-------------8-5-------5-8/11-8-------11/14-11-------|
|-----------------7---7----------10-10---------13--13-|
|-------------------5--------------8-------------11---|
|-3~~~--5~~~------------------------------------------|
|-1~~~--3~~~------------------------------------------|
|-----------------------------------------------------|

|-14/17-14---------14-17--20-20-20-20-20-20-20-20-20-20-20b-|
|---------16----16------------------------------------------|
|------------14---------------------------------------------|
|-----------------------------------------------------------|
|-----------------------------------------------------------|
|-----------------------------------------------------------|
(Below, Padge uses a whammy bar and some harmonics, that I can't figure out.)
|-17~~----------------------------14--11-10-11-10-11-10--10-|
|------13~-15~-18~-------------------------------------13---|
|------------------0~~--5~~---------------------------------|
|-----------------------5~~---------------------------------|
|-----------------------------------------------------------|
|----------------------------0~~----------------------------|

|-------------------------------------------------------------|
|-13-11-10-11-10-11-10--10------------------------------------|
|---------------------12---12-11--11--10--9--8-7-6--5-7---5-7-|
|-------------------------------13--12--11-10-9-8-7-----------|
|-------------------------------------------------------------|
|-------------------------------------------------------------|

|----------------------10--------------12----------------------------|
|-------8--7---10-11-13--13-11-11-13-15--15-13------17---17-18-17-18-|
|-8--7-----------------------------------------17-19--19-------------|
|--------------------------------------------------------------------|
|--------------------------------------------------------------------|
|--------------------------------------------------------------------|

|---17-18-20-20b~~--|
|-20----------------|
|-------------------|
|-------------------|
|-------------------|
|-------------------|

Then go back into the Chorus and your done. I hope this helped and please rate. =D
Tap to rate this tab
# A B C D E F G H I J K L M N O P Q R S T U V W X Y Z