Song name
# A B C D E F G H I J K L M N O P Q R S T U V W X Y Z

Bullet For My Valentine - Breaking Point tab

D-------------------------------------------------------------------|
A-------------------------------------------------------------------|
F-------------------------------------------------------------------|
C-------------------------------------------------------------------|
G--12\--8p5-5-5-5-5-8p5-5-5-5-5-8p5-5-5-5-5-8p5-5-5-5p3-3-3-7p3-3-3-|
C--12\--------------------------------------------------------------|
            * * * *     * * * *     * * * *     * *     * *     * *

D--------------------------------------------------------------|
A--------------------------------------------------------------|
F--------------------------------------------------------------|
C--------------------------------------------------------------| x6
G--8p5-5-5-5-5-8p5-5-5-5-5-8p5-5-5-5-5-8p5-5-5-5p3-3-3-7p3-3-3-|
C--------------------------------------------------------------|
       * * * *     * * * *     * * * *     * *     * *     * *

D--------------------------------------------------------------|
A--------------------------------------------------------------|
F--------------------------------------------------------------|
C---------------------------0-3-5-6-5-3-0----------------------|
G--8p5-5-5-5-5-8p5-5-5-5-5--0-3-5-6-5-3-0----------------------|
C---------------------------0-3-5-6-5-3-0----------------------|
       * * * *     * * * *  * * *
Tap to rate this tab
# A B C D E F G H I J K L M N O P Q R S T U V W X Y Z