Song name
# A B C D E F G H I J K L M N O P Q R S T U V W X Y Z

Bullet For My Valentine - Not Invincible tab

Hey guys hope you enjoy learning this it was all tabbed by ear using windows media 
player to slow it down so it might not be completely 100% accurate but i like to play along 
to the song with this and it seems to fit nicely so... Enjoy!!! :D

Note: I am currently working on the whole song so i should have that out later but with 
my school work getting in the way it slows it down hugely :P

Also if you are tabbing the song yourself you are welcome to use this solo for your own 
song credits are much appreciated obviously i can't make you give them though :P

Drop C tuning

SOLO
D|----------------------------------------------------------------------------------|
A|--10---------------------------------10-----10--12b(14)--10--12--10---------------|
F|--12b--11--9--11--11b(13)--11--9--11------11--------------------------11b(12)-----|
C|----------------------------------------------------------------------------------|
G|----------------------------------------------------------------------------------|
C|----------------------------------------------------------------------------------|

D|--17--14--16--12--14--------------------------------------------------------------|
A|----------------------15--17--14--15--12--14--------------------------------------|
F|----------------------------------------------14--16--13--14----------------------|
C|--------------------------------------------------------------16----16--18--19----|
G|----------------------------------------------------------------------------------|
C|----------------------------------------------------------------------------------|

D|--------------------------------------------------------------17------------------|
A|--------------17----------------------------------17--19--21------21--19 17 17b*--|
F|--16--18--19------19--18--16--18--19--16--18--19----------------------------------|
C|----------------------------------------------------------------------------------|
G|----------------------------------------------------------------------------------|
C|----------------------------------------------------------------------------------|

D|-------14--------------------------------------------14--17t--14p--12--14h--17t---|
A|--13b------[17t--14p--12--14h--17t]x6--17t--14--17t-------------------------------|
F|----------------------------------------------------------------------------------|
C|----------------------------------------------------------------------------------|
G|----------------------------------------------------------------------------------|
C|----------------------------------------------------------------------------------|

D|--17t--14p--12--14h--17t--17t--14p--12--14h--17t--14p--12--14h--17t--14p--12--14h-|
A|----------------------------------------------------------------------------------|
F|----------------------------------------------------------------------------------|
C|----------------------------------------------------------------------------------|
G|----------------------------------------------------------------------------------|
C|----------------------------------------------------------------------------------|

D|--17b--5--(9t--5p--2--5h)x4--(12t--9p--5--9h)x4--16t--12p--9--12h--16t--12--14t---|
A|----------------------------------------------------------------------------------|
F|----------------------------------------------------------------------------------|
C|----------------------------------------------------------------------------------|
G|----------------------------------------------------------------------------------|
C|----------------------------------------------------------------------------------|

D|--12p--9--12h--16t--12--14t--12p--9--12h--16b-------------------------------------|
A|-------------------------------------------------14v--12v--10v--9--10--9----------|
F|--------------------------------------------------------------------------9--11---|
C|----------------------------------------------------------------------------------|
G|----------------------------------------------------------------------------------|
C|----------------------------------------------------------------------------------|

D|--21--17------17----------22--17------17----------21--17------17----------19--17--|
A|----------21------21--17----------21------21--17----------21------21--17----------|
F|----------------------------------------------------------------------------------|
C|----------------------------------------------------------------------------------|
G|----------------------------------------------------------------------------------|
C|----------------------------------------------------------------------------------|

D|------17----------21-21-21-21-19-19-19-19-17-17-17-17-----------------------------|
A|--21------21--17---------------------------------------21v------------------------|
F|----------------------------------------------------------------------------------|
C|----------------------------------------------------------------------------------|
G|----------------------------------------------------------------------------------|
C|----------------------------------------------------------------------------------|

D|----------------------------------------------------------------------------------|
A|--------------------------------------15--17--19--17b-----------------------------|
F|--------------------------14--16--18----------------------------------------------|
C|--------------14--16--18----------------------------------------------------------|
G|--14--16--17----------------------------------------------------------------------|
C|----------------------------------------------------------------------------------|


and there you have it :P.
constructive criticism is much appreciated hope you have fun learning this song :D

-Tasilth
Tap to rate this tab
# A B C D E F G H I J K L M N O P Q R S T U V W X Y Z