Song name
# A B C D E F G H I J K L M N O P Q R S T U V W X Y Z

Bullet For My Valentine - Not Invincible tab

-------------------------------------------------------------------------------
                             NOT INVINCIBLE - Bullet For My Valentine
-------------------------------------------------------------------------------
Tabbed by:a7xgates23

Tuning: Drop C

*Intro

d|--------------------------------------------------------------------------|
A|--------------------------------------------------------------------------|
F|--------------------------------------------------------------------------|
C|---------------------------------------------------------------0-----2----|
G|---------------------------------------------------------------0-----2--4x|
C|-4444-6-44-7--4444-6-44-7--4444-7-6-4-6~---4444-6-44-7--4444---0-----2----|
   ****   **    ****   **    ****            ****   **    ****

d|--------------------------------------------------------------------------|
A|--------------------------------------------------------------------------|
F|--------------------------------------------------------------------------|
C|-----------------------------------------------------------99999----------|
G|------------------------------------------540-540-540-540--77777----------|
C|-4444-6-44-7--4444-6-44-7--4444-7-6-4-6~----------------------------------|
   ****   **    ****   **    ****           *** *** *** ***

*Verse

d|--------------------------------------------------------------------------|
A|--------------------------------------------------------------------------|
F|--------------------------------------------------------------------------|
C|-4----5---2s4-------------4----5---2--------------------------------------|
G|-4----5---2s4-------------4----5---2--------------------------------------|
C|-4-44-5-4-2s4--4444-4444--4-44-5-4-2--2222-2222---------------------------|
     **   *      **** ****    **   *    **** ****
d|--------------------------------------------------------------------------|
A|--------------------------------------------------------------------------|
F|--------------------------------------------------------------------------|
C|-4----5---2s4-------------4----5---2~~~----0----2-------------------------|
G|-4----5---2s4-------------4----5---2~~~----0----2-------------------------|
C|-4-44-5-4-2s4--4444-4444--4-44-5-4-2~~~----0----2-------------------------|
     **   *      **** ****    **   *
d|--------------------------------------------------------------------------|
A|--------------------------------------------------------------------------|
F|--------------------------------------------------------------------------|
C|-4----5---2s4------------------4----5---2---------------------------------|
G|-4----5---2s4------------------4----5---2---------------------------------|
C|-4-44-5-4-2s4--444-444-444-444-4-44-5-4-2-2222-2-222-5-4-0-2--------------|
     **   *      *** *** *** ***   **   *   ****   ***

d|--------------------------------------------------------------------------|
A|--------------------------------------------------------------------------|
F|--------------------------------------------------------------------------|
C|-4----5---2s4--------------------------------------99999------------------|
G|-4----5---2s4--------------------540-540-540-540---77777------------------|
C|-4-44-5-4-2s4--444-444-444-444--------------------------------------------|
     **   *      *** *** *** ***   *** *** *** ***
*Pre-Chorus

D|--------------------------------------------------------------------------|
A|--------------------------------------------------------------------------|
F|--------------------------------------------------------------------------|
C|-0~~-------2~~-----------0~~---------2~~----------------------------------|
G|-0~~-------2~~-----------0~~---------2~~----------------------------------|
C|-0~~-------2~~-----------0~~---------2~~---------(pick slide)-------------|


*Chorus

e|--------------------------------------------------------------------------|
B|--------------------------------------------------------------------------|
G|--------------------------------------------------------------------------|
D|-0~~-------2~~-----------4---7--------------------------------------------|
A|-0~~-------2~~-----------4---7--------------------------------------------|
E|-0~~-------2~~-----------4---7--------------------------------------------|

e|--------------------------------------------------------------------------|
B|--------------------------------------------------------------------------|
G|--------------------------------------------------------------------------|
D|-0~~-------2~~------------------------------------------------------------|
A|-0~~-------2~~------------------------------------------------------------|
E|-0~~-------2~~------2222--5-4-2-5-----------------------------------------|
                      ****
*Intro2

d|--------------------------------------------------------------------------|
A|--------------------------------------------------------------------------|
F|--------------------------------------------------------------------------|
C|-4----5---2s4-------------4----5---2--------------------------------------|
G|-4----5---2s4-------------4----5---2--------------------------------------|
C|-4-44-5-4-2s4--4444-4444--4-44-5-4-2--2222-2222---4-2-4-2-----------------|
     **   *      **** ****    **   *    **** ****
d|--------------------------------------------------------------------------|
A|--------------------------------------------------------------------------|
F|--------------------------------------------------------------------------|
C|-4----5---2s4--------------------------------99999------------------------|
G|-4----5---2s4--------------540-540-540-540---77777------------------------|
C|-4-44-5-4-2s4--4444-4444--------------------------------------------------|
     **   *      **** ****   *** *** *** ***

*Repeat verse

*Chorus

e|--------------------------------------------------------------------------|
B|--------------------------------------------------------------------------|
G|--------------------------------------------------------------------------|
D|-0-----------------------2----2-----4---7---------------------------------|
A|-0-----------------------2----2-----4---7---------------------------------|
E|-0-00-0-00-0-0-0-0-0h2h4-2-22-2-----4---7---------------------------------|
     **   **   *   *         **

e|--------------------------------------------------------------------------|
B|--------------------------------------------------------------------------|
G|--------------------------------------------------------------------------|
D|-0-----------------------2----2--------7-6--------------------------------|
A|-0-----------------------2----2--------7-6--------------------------------|
E|-0-00-0-00-0-0-0-0-0h2h4-2-22-2--22----7-6--------------------------------|
     **   **   *   *         **    **

Solo

Pre Chorus

Chorus

Play verse for Outro.

Sorry got lazy tabbing solo and the rest. Tasilth's solo tab is pretty accurate. Just 
learn that one and you'll be set. Rock on \m/
Tap to rate this tab
# A B C D E F G H I J K L M N O P Q R S T U V W X Y Z