Song name
# A B C D E F G H I J K L M N O P Q R S T U V W X Y Z

Bullet For My Valentine - Tears Dont Fall tab

Im pretty sure he fingertaps at some parts too if not the whole thing
-20p17----17---------20p17----17---------20p17----17---------20p17-----17----15/17-|
------h20----h20p17-------h20----h20p17-------h20----h20p17--------h20----20-------|
-----------------------------------------------------------------------------------|
-----------------------------------------------------------------------------------|
-----------------------------------------------------------------------------------|
-----------------------------------------------------------------------------------|

-20p17----17---------20p17----17---------20p17----17----------------------|
------h20----h20p17-------h20----h20p17-------h20----h20p17--20p17--------|
-------------------------------------------------------------------19-19b-|
--------------------------------------------------------------------------|
--------------------------------------------------------------------------|
--------------------------------------------------------------------------|

-20p17----17---------------------------------------------------|
------h20----h20p17--20p17----17-------------------------------|
---------------------------19----19p17--19p17-----17-----------|
----------------------------------------------h19----19-17-17b-|
---------------------------------------------------------------|
---------------------------------------------------------------|

----------------------------------h17-----------------------------|
-----------------------17h20p17h20--------------------------------|
----17h19p17------------------------------------------------------|
-19----------19/17--17----------------13/12b----------10----10----|
---------------------------------------------------------12----12-|
------------------------------------------------------------------|

---------------------------------------------------------------|
---------------------------------------------------------------|
---------------------------------------------------------------|
----10-12b-10--------10-12*-12-10--------10-12*-12-10----10----|
-12-----------12--12--------------12--12--------------12----12-|
---------------------------------------------------------------|

--------------------------------------------|
--------------------------------------------|
--------------------------------------------|
-12h14p12p10h12p10p9h10p9p7~///-*ps*--------|
--------------------------------------------|
--------------------------------------------|
Tap to rate this tab
# A B C D E F G H I J K L M N O P Q R S T U V W X Y Z