Song name
# A B C D E F G H I J K L M N O P Q R S T U V W X Y Z

Bullet For My Valentine - Breaking Point tab

Artist: Bullet For My Valentine
Song: Breaking Point
Album: Temper Temper

Tab Contributor: macdaddyjobob

Legend: /    | Slide up
        \    | Slide down
        b    | Bend
        r    | Release bend
        ~    | Vibrato
        h    | Hammer on
        p    | Pull off
        -tr- | Tremolo pick

This is as close as it can possibly get if not exactly to how Padge plays the solo. Rate 
it, comment, and tell me what you guys think!

D|--/10-14-10-11-14-11-10----------------10-11-14-11-10--|
A|------------------------13-11-10-11-13-----------------|
F|-------------------------------------------------------|
C|-------------------------------------------------------|
G|-------------------------------------------------------|
C|-------------------------------------------------------|

D|--15-11-14-15-14-11----------------11-14-15-14-11--|
A|--------------------15-13-11-13-15-----------------|
F|---------------------------------------------------|
C|---------------------------------------------------|
G|---------------------------------------------------|
C|---------------------------------------------------|

D|--17-14-15-17-15-14----------------14-15-17-15-14--|
A|--------------------16-15-13-15-16-----------------|
F|---------------------------------------------------|
C|---------------------------------------------------|
G|---------------------------------------------------|
C|---------------------------------------------------|

D|--18-15-17-18-17-15----------------15-17-18-17-15--|
A|--------------------18-17-15-17-18-----------------|
F|---------------------------------------------------|
C|---------------------------------------------------|
G|---------------------------------------------------|
C|---------------------------------------------------|

D|--17------------18b20-18-17--|
A|-----15~--16-15--------------|
F|-----------------------------|
C|-----------------------------|
G|-----------------------------|
C|-----------------------------|

D|--20-18-17-15-18-17-15-14-17-15-14-11-15-14-11-10-14-11-10-8-11-10-8-6-10-8-6----------------|
A|------------------------------------------------------------------------------10-8-7---------|
F|-------------------------------------------------------------------------------------8-5-7~--|
C|---------------------------------------------------------------------------------------------|
G|---------------------------------------------------------------------------------------------|
C|---------------------------------------------------------------------------------------------|

D|--------------------------------------------------------|
A|--------------------------------------------------------|
F|--5-7-7/8-7-5-7-----------------------------------------|
C|----------------7-7-7/8-7-5-7-8-7-----------------/15\--|
G|----------------------------------6-5-3-5-6-3-5~--/15\--|
C|--------------------------------------------------/15\--|

D|-------------------------------------------------------------|
A|-------------------------------------------------------------|
F|-------------------------------------------------------------|
C|-----------------------------------------------10h12h13p12p10|
G|-----------9h10h12p10p9----------------9h10h12---------------|
C|--10h12h13--------------13p12p10h12h13-----------------------|

----------------------------------------|
----------------------------------------|
------------------------11h12h14p12p11--|
---------------10h12h13-----------------|
-12p10p9h10h12--------------------------|
----------------------------------------|


D|------------------------------------14h15h17p15p14---------------|
A|--------------------------13h15h16-----------------16p15p13h15h16|
F|-----------------11h12h14----------------------------------------|
C|--13p12p10h12h13-------------------------------------------------|
G|-----------------------------------------------------------------|
C|-----------------------------------------------------------------|

-14h15h17p15p14----------------14h15h17--|
----------------16p15p13h15h16-----------|
-----------------------------------------|
-----------------------------------------|
-----------------------------------------|
-----------------------------------------|

         -tr-|
D|--17b18-18-18r17~--15h17p15p14-14h15p14\11----10----10----10----10----10-----|
A|-------------------------------------------13-13b15-13b15-13b15-13b15-13b15~-|
F|-----------------------------------------------------------------------------|
C|-----------------------------------------------------------------------------|
G|-----------------------------------------------------------------------------|
C|-----------------------------------------------------------------------------|


-13----13----16----16----16-----|
-16b18-16b18-19b21-19b21-19b21--|
--------------------------------|
--------------------------------|
--------------------------------|
--------------------------------|
Tap to rate this tab
 
# A B C D E F G H I J K L M N O P Q R S T U V W X Y Z