Song name
# A B C D E F G H I J K L M N O P Q R S T U V W X Y Z

Bullet For My Valentine - Raising Hell tab

Tabbed by: Connor Ford

Band:  Bullet for My Valentine
Song:  Raising Hell
Album: ? (2013)


Tuning: D Tuning (D, G, C, F, A, D)
(Tune all string down one whole step)



Please rate, comment, correct, anything that will help :)


Hammer on:        h
Pull off:         p
Slide up:         /
Slide down:       \
Bend up:          BU(?)
Tapped note:      T
Vibrato:          ~~~
Pinch Harmonic:   PH
Natural Harmonic: NH
After Muting:     M
Pick slide:       X\\\ ('\' indicated duration)
Dive Bomb:        DB

/ before DB indicates a raise into the dive bomb
\ after DB indicates a lower of the Floyd rose bar

Guitar 1:        Matt Tuck
Guitar 2:        Michael Padge
Guitar 3:        Michael Padge (Additional harmonies)


________________________________________________________________________________



Intro
Guitar 1
|---------------------------------|---------------------------------|
|---------------------------------|---------------------------------|
|---------------------------------|---------------------------------|
|-2-------------------------------|-3-------------------------------|
|-2-------------------------------|-1-----------------------1-111-1-|
|-0-------------------------------|-------------------------1-111-1-|
|
|Guitar 2
|---------------------------------|---------------------------------|
|---------------------------------|---------------------------------|
|-4NH-DB\\\\\---------------------|---------------------------------|
|---------------------------------|---------------------------------|
|---------------------------------|-7NH-DB\\\\\---------------------|
|---------------------------------|---------------------------------|

Guitar 1
|---------------------------------|---------------------------------|
|---------------------------------|---------------------------------|
|---------------------------------|---------------------------------|
|-2-------------------------------|-3---------------5---------------|
|-2-------------------------------|-1---------------3---------------|
|-0-------------------------------|---------------------------------|
|
|Guitar 2
|---------------------------------|---------------------------------|
|---------------------------------|---------------------------------|
|-5NH-////DB------5\/5\/5\(5\\\---|-5NH-DB\\\\\---------------------|
|---------------------------------|---------------------------------|
|---------------------------------|---------------------------------|
|---------------------------------|---------------------------------|


________________________________________________________________________________


Pre-verse 1
Guitar 1
||-----------------------------------------------------------------||
|o-----------------------------------------------------------------o|
||-----------------------------------------------------------------||
||-----------------------------------------------------------------||
|o-----------------------------------------------------------------o|
||-6p0-0-0-0-0-0-0-6p0-0-0-0-0-0-0-6p0-0-0-0-0-0-0-6p0-5p0-3p0-5p0-||
|
|Guitar 2
||-----------------------------------------------------------------||
|o-----------------------------------------------------------------o|
||-----------------------------------------------------------------||
||-2---------------------------------------------------------------||
|o-2---------------------------------------------------------------o|
||-0---------------------------------------------------------------||

Both guitars
|-----------------------------------------------------------------|
|-----------------------------------------------------------------|
|-----------------------------------------------------------------|
|-----------------------------------------------------------------|
|-----------------------------------------------------------------|
|-6p0-0-0-0-0-0-0-6p0-0-0-0-0-0-0-6p0-0-0-0-0-0-0-6p0-5p0-3p0-5p0-|

Guitar 1
|-----------------------------------------------------------------|
|-----------------------------------------------------------------|
|-----------------------------------------------------------------|
|---------------------------------------------------------5---5---|
|---------------------------------1-----1-----1-------1---3---3---|
|-6p0-0-0-0-0-0-0-6p0-0-0-0-0-0-0-1-----1-----1-------1-----------|
|
|Guitar 2
|-----------------------------------------------------------------|
|-----------------------------------------------------------------|
|---------------------------------3NH DB/3\/3\/3/////\\\\\--------|
|-----------------------------------------------------------------|
|-----------------------------------------------------------------|
|-6p0-0-0-0-0-0-0-6p0-0-0-0-0-0-0---------------------------------|

________________________________________________________________________________


Verse 1
Both guitars
||-----------------------------------------------------------------||
|o-----------------------------------------------------------------o|
||-----------------------------------------------------------------||
||-----------------------------------------------------------------|| x3
|o-----------------------------------------------------------------o|
||-6p0-0-0-0-0-0-0-6p0-0-0-0-0-0-0-6p0-0-0-0-0-0-0-6p0-5p0-3p0-5p0-||

|-----------------------------------------------------------------|
|-----------------------------------------------------------------|
|-----------------------------------------------------------------|
|---------------------------------3-----3-----3-------3---5---5---|
|---------------------------------1-----1-----1-------1---3---3---|
|-6p0-0-0-0-0-0-0-6p0-0-0-0-0-0-0---------------------------------|

________________________________________________________________________________


Verse 2
Both guitars
||-----------------------------------------------------------------||
|o-----------------------------------------------------------------o|
||-----------------------------------------------------------------||
||-----------------------------------------------------------------|| x3
|o-----------------------------------------------------------------o|
||-6p0-0-0-0-0-0-0-6p0-0-0-0-----------0-0-0-0-0-0-6p0-5p0-3p0-5p0-||

|-----------------------------------------------------------------|
|-----------------------------------------------------------------|
|-----------------------------------------------------------------|
|---------------------------------3-----3-----3-------3---5---5---|
|---------------------------------1-----1-----1-------1---3---3---|
|-6p0-0-0-0-0-0-0-6p0-0-0-0-0-0-0---------------------------------|



________________________________________________________________________________


Repeat Verse 1

________________________________________________________________________________


Drum fill
Both guitars
|-----------------|
|-----------------|
|-----------------|
|-----------------|
|-----------------|
|-0000--0000--00--|


________________________________________________________________________________


Chorus
Guitar 1
|---------------------------------|-3-------------------------------|
|---------------------------------|-3-------------------------------|
|---------------------------------|-0-------------------------------|
|-2-------------------------------|-0-------------------------------|
|-2-------------------------------|-2-------------------------------|
|-0-------------------------------|-3-------------------------------|
|
|Guitar 2
|---------------------------------|---------------------------------|
|-------------------10------------|-12----10------------------------|
|-/9----11----12----------12--11--|-------------12------------------|
|---------------------------------|---------------------------------|
|---------------------------------|---------------------------------|
|---------------------------------|---------------------------------|
|
|Guitar 3
|---------------------------------|-10------------------------------|
|-------10----12----13----12--10--|-------13----12------------------|
|-/12-----------------------------|---------------------------------|
|---------------------------------|---------------------------------|
|---------------------------------|---------------------------------|
|---------------------------------|---------------------------------|


Guitar 1
|---------------------------------|---------------------------------|
|---------------------------------|---------------------------------|
|-4-------------------------------|-5---------------7---------------|
|-4---------------------------2-4-|-5---------------7---------------|
|-2---------------------------0-2-|-3---------------5---------------|
|-2---------------------------0-2-|-3---------------5---------------|
|
|Guitar 2
|---------------------------------|---------------------------------|
|-------------------10------------|---------------------------------|
|-/9----11----12----------12--11--|-9-----------9-11-12------11--9--|
|---------------------------------|----------10---------------------|
|---------------------------------|---------------------------------|
|---------------------------------|---------------------------------|
|
|Guitar 3
|---------------------------------|---------------------------------|
|-------10----12----13----12--10--|---------------10-12------10-----|
|-/12-----------------------------|-12-------9-12----------------12-|
|---------------------------------|---------------------------------|
|---------------------------------|---------------------------------|
|---------------------------------|---------------------------------|


________________________________________________________________________________


Pre-verse 2
Guitar 1
|-----------------------------------------------------------------|
|-----------------------------------------------------------------|
|-----------------------------------------------------------------|
|-----------------------------------------------------------------|
|-----------------------------------------------------------------|
|-6p0-0-0-0-0-0-0-6p0-0-0-0-0-0-0-6p0-0-0-0-0-0-0-6p0-5p0-3p0-5p0-|
|
|Guitar 2
|-----------------------------------------------------------------|
|-----------------------------------------------------------------|
|-5NH-DB\\\\\-----------------------------------------------------|
|-----------------------------------------------------------------|
|-----------------------------------------------------------------|
|-----------------------------------------------------------------|

Guitar 1
|-----------------------------------------------------------------|
|-----------------------------------------------------------------|
|-----------------------------------------------------------------|
|---------------------------------------------------------5---5---|
|---------------------------------1-----1-----1-------1---3---3---|
|-6p0-0-0-0-0-0-0-6p0-0-0-0-0-0-0-1-----1-----1-------1-----------|
|
|Guitar 2
|-----------------------------------------------------------------|
|-----------------------------------------------------------------|
|-(5)\\\\\------------------------3NH-DB\/3\/3/////---------------|
|-----------------------------------------------------------------|
|-----------------------------------------------------------------|
|-----------------------------------------------------------------|

________________________________________________________________________________


Repeat Verse 2

Repeat Verse 1

Repeat Drum fill x2

Repeat Chorus

________________________________________________________________________________


Bridge
Guitar 1
||-----------------------------------------------------------------||
|o-----------------------------------------------------------------o|
||-----------------------------------------------------------------||
||-----------------------------------------------------------------|| x3
|o-----------------------------------------------------------------o|
||-6p0-0-0-0-0-0-0-6p0-0-0-0-0-0-0-6p0-0-0-0-0-0-0-6p0-5p0-3p0-5p0-||

Guitar 2
|-----------------------------------------------------------------|
|-----------------------------------------------------------------|
|-----------------------------------------------------------------|
|-2---------------------------------------------------------------|
|-2---------------------------------------------------------------|
|-0---------------------------------------------------------------|

Guitar 1
|-----------------------------------------------------------------|
|-----------------------------------------------------------------|
|-----------------------------------------------------------------|
|---------------------------------7PH~~-5PH~~---------------------|
|---------------------------------------------7PH~~~~~~~~~--------|
|-6p0-0-0-0-0-0-0-6p0-0-0-0-0-0-0---------------------------------|
|
|Guitar 2
|-----------------------------------------------------------------|
|-----------------------------------------------------------------|
|-----------------------------------------------------------------|
|-X\\\\\\\\\\\\\\\\\\\\\\\\\\\\\\-7PH~~-5PH~~---------------------|
|-X\\\\\\\\\\\\\\\\\\\\\\\\\\\\\\-------------7PH~~~~~~~~~--------|
|-X\\\\\\\\\\\\\\\\\\\\\\\\\\\\\\---------------------------------|


________________________________________________________________________________


Solo (MP)
Guitar 1 (Rhythm)
||-----------------------------------------------------------------|
|o-----------------------------------------------------------------|
||-----------------------------------------------------------------|
||-----------------------------------------------------------------|
|o-------------------------------------------------2---5---7---8---|
||-6p0-0-0-0-0-0-0-6p0-0-0-0-0-0-0-6p0-0-0-0-0-0-0-0---3---5---6---|

|-----------------------------------------------------------------||
|-----------------------------------------------------------------o|
|-----------------------------------------------------------------||
|-----------------------------------------------------------------||
|---------------------------------7-----5-----7-------8---7---5---o|
|-6p0-0-0-0-0-0-0-6p0-0-0-0-0-0-0-5-----3-----5-------6---5---3---||


Guitar 2 (Lead)
|---------------------------------------------------------------------|
|-5-0-7-0-7-8-0-5-7-0-7-8-0-5-7-0-7-8-0-8-10-0-7-8-0-8-10-0-10-12-0-0-|
|---------------------------------------------------------------------|
|---------------------------------------------------------------------|
|---------------------------------------------------------------------|
|---------------------------------------------------------------------|

|----------------------------------------------12----------------12-14-15-|
|----------12----------------12-13-15-12-13-15----15-13-12-13-15----------|
|-11-12-14----14-12-11-12-14----------------------------------------------|
|-------------------------------------------------------------------------|
|-------------------------------------------------------------------------|
|-------------------------------------------------------------------------|

|-14BU(15)(14)---h17~~~~---|
|--------------------------|
|--------------------------|
|--------------------------|
|--------------------------|
|--------------------------|

Guitar 2
|-----------------------------------------------------------------------|
|-12-13-0-0-10-12-0-0-8-10-0-0-7-8-0-0-8-0-0-7-0-0-8-0-0-10-0-0-8-0-7-0-|
|-----------------------------------------------------------------------|
|-----------------------------------------------------------------------|
|-----------------------------------------------------------------------|
|-----------------------------------------------------------------------|
|
|Guitar 3
|------------------------------------------------------------------|
|-8-10-0-0-7-8-0-0-5-7-0-0-3-5-0-0-5-0-0-3-0-0-5-0-0-7-0-0-5-0-3-0-|
|------------------------------------------------------------------|
|------------------------------------------------------------------|
|------------------------------------------------------------------|
|------------------------------------------------------------------|

|----------------------------17-19-20-20-19-17----------------------------|
|----------17-19-20-17-19-20-------------------20-19-17----------17-19-20-|
|-16-17-19----------------------------------------------16-17-19----------|
|-------------------------------------------------------------------------|
|-------------------------------------------------------------------------|
|-------------------------------------------------------------------------|

|-19BU(20)~~~-(19)p17-19~~~~-|
|----------------------------|
|----------------------------|
|----------------------------|
|----------------------------|
|----------------------------|

________________________________________________________________________________


Duel pause
Guitar 1 (Rhythm)
|-------------------------------------|
|-------------------------------------|
|-------------------------------------|
|-------------------------------------|
|-2---2---2---2---7--5--7--8----------|
|-0---0---0---0---5--3--5--6----------|
|
|Guitar 2 (Lead)
|-------------------------------------|
|----------------------------/10~~~~\-|
|-/9~~~~~\-/11~~~~\-/12~~~~\----------|
|-------------------------------------|
|-------------------------------------|
|-------------------------------------|
|
|Guitar 3 (Harmony)
|-------------------------------------|
|----------/10~~~~\-/12~~~~\-/13~~~~\-|
|-/12~~~~\----------------------------|
|-------------------------------------|
|-------------------------------------|
|-------------------------------------|

________________________________________________________________________________


Solo continued
Guitar 1 (Rhythm)
|-----------------------------------------------------------------|
|-----------------------------------------------------------------|
|-----------------------------------------------------------------|
|-----------------------------------------------------------------|
|-------------------------------------------------2---5---7---8---|
|-6p0-0-0-0-0-0-0-6p0-0-0-0-0-0-0-6p0-0-0-0-0-0-0-0---3---5---6---|

|-----------------------------------------------------------------|
|-----------------------------------------------------------------|
|-----------------------------------------------------------------|
|-----------------------------------------------------------------|
|---------------------------------7-----5-----7-------8---7---5---|
|-6p0-0-0-0-0-0-0-6p0-0-0-0-0-0-0-5-----3-----5-------6---5---3---|

|-----------------------------------------------------------------|
|-----------------------------------------------------------------|
|-----------------------------------------------------------------|
|-----------------------------------------------------------------|
|-7-----5-----7-------8---7---5---7-----5-----7-------8---7---5---|
|-5-----3-----5-------6---5---3---5-----3-----5-------6---5---3---|

Guitar 2 (Lead)
|-19-15--15-18-15--15-19-15--15-18-15--15-19-15--15-18-15--15-17-15--15-18-15--15-|
|------17--------17--------17--------17--------17--------17--------17--------17---|
|---------------------------------------------------------------------------------|
|---------------------------------------------------------------------------------|
|---------------------------------------------------------------------------------|
|---------------------------------------------------------------------------------|

|-19-15-18-19-18-15----------------15-17-19-17-15-|
|-------------------19-17-15-17-19----------------|
|-------------------------------------------------|
|-------------------------------------------------|
|-------------------------------------------------|
|-------------------------------------------------|

||-17-----------17-----------17---------------18-------18-------||
|o-20BU(22)-----20BU(22)-----20BU(22)---------21BU(23)-21BU(23)-o|
||--------------------------------------------------------------||
||--------------------------------------------------------------||
|o--------------------------------------------------------------o|
||--------------------------------------------------------------||

Guitar 2
|----------------------------17-19-20-19-17----------------17-19-20-19-17-19\---|
|----------17-19-20-17-19-20----------------20-19-17-19-20----------------------|
|-16-17-19----------------------------------------------------------------------|
|-------------------------------------------------------------------------------|
|-------------------------------------------------------------------------------|
|-------------------------------------------------------------------------------|
|
|Guitar 3
|----------------------------14-15-17-15-14----------------14-15-17-15-14-15\---|
|----------13-15-17-13-15-17----------------17-15-13-15-17----------------------|
|-12-14-16----------------------------------------------------------------------|
|-------------------------------------------------------------------------------|
|-------------------------------------------------------------------------------|
|-------------------------------------------------------------------------------|


________________________________________________________________________________


Repeat Chorus x2

________________________________________________________________________________


Outro
Guitar 1
|---------|
|---------|
|---------|
|-2-------|
|-2-------|
|-0-------|
|
|Guitar 2
|---------|
|---------|
|-9~~~~~~-|
|---------|
|---------|
|---------|
|
|Guitar 3
|---------|
|---------|
|-12~~~~~-|
|---------|
|---------|
|---------|

________________________________________________________________________________


That's all of it, please rate :)
Tap to rate this tab
# A B C D E F G H I J K L M N O P Q R S T U V W X Y Z