Song name
# A B C D E F G H I J K L M N O P Q R S T U V W X Y Z

Bullet For My Valentine - Hand Of Blood tab

Help us improve GuitareTab! Take a short survey!
-------------------------------------------------------------------------------
			     Hand Of Blood - Bullet For My Valentine
-------------------------------------------------------------------------------
Tabbed by: Somebody some1
Email: antihero-777@hotmail

Feel free to email me any problems and questions! 

Tuning: Drop C (C G C F A D Low to high)


Solo

Guitar 1
D|-----------|---------|---------------|------------|
A|-----------|---------|---------------|------------|
F|-----------|---------|-14----12~~----|------------|
C|-------/12~|~~~~~~~~~|------------14~|~~~~~~~~~~~~|
G|-----------|---------|---------------|------------|
C|-----------|---------|---------------|------------|

D|-17p13-------17p13-17p13-------17p13-17p13-------|-13----------|
A|-------15p13-------------15p13-------------15p13-|-16--(18)~~~~|
F|-------------------------------------------------|---bu--------|
C|-------------------------------------------------|-------------|
G|-------------------------------------------------|-------------|
C|-------------------------------------------------|-------------|

D|-------------------------|-----------------|
A|-------------------------|-10~~~~~~~~~~~~~~|
F|-------------------10h12-|-----------------|
C|-10h12p10----10h12-------|------------------|
G|----------12-------------|-----------------|
C|-------------------------|-----------------|

Guitar 2
D|--------------|----------|-------------|--------------|
A|--------------|----------|-------------|--------------|
F|--------------|----------|-------------|--------------|
C|--------------|----------|-----------3-|-3-3-7--7-7-7-|
G|--------------|----------|-----------3-|-3-3-7--7-7-7-|
C|-0-0-00000----|----------|-0-0-00000-3-|-3-3-7--7-7-7-|
   . . .....                 . . .....

D|--------------|----------|-------------|--------------|
A|--------------|----------|-------------|--------------|
F|--------------|----------|-------------|--------------|
C|--------------|----------|-----------3-|-3-3-7--7-7-7-|
G|--------------|----------|-----------3-|-3-3-7--7-7-7-|
C|-0-0-00000----|----------|-0-0-00000-3-|-3-3-7--7-7-7-|
   . . .....                 . . .....

Interlude

Guitar 1
D|-------------------|----------15----------|-------------------|
A|-------17----18~~~~|-17-18-17----18-17-18-|-------17----18~~~~|
F|-15-15----15-------|----------------------|-14-14----14-------|
C|-------------------|----------------------|-------------------|
G|-------------------|----------------------|-------------------|
C|-------------------|----------------------|-------------------|

D|----------15----------|-------------------|----------15----------|
A|-17-18-17----18-17-18-|-------17----18~~~~|-17-18-17----18-17-18-|
F|----------------------|-15-15----15-------|----------------------|
C|----------------------|-------------------|----------------------|
G|----------------------|-------------------|----------------------|
C|----------------------|-------------------|----------------------|

D|-------------------|-20-18-17----------------|
A|-------17----18~~~~|----------20-18-17-------|
F|-14-14----14-------|-------------------19-17-|
C|-------------------|-------------------------|
G|-------------------|-------------------------|
C|-------------------|-------------------------|

D|---------------|------------------|---------------|------------------|
A|---------------|--------8---------|---------------|--------8---------|
F|-----9---10~~~~|-9-10-9---10-9-10-|-----9---10~~~~|-9-10-9---10-9-10-|
C|-8-8---8-------|------------------|-7-7---7-------|------------------|
G|---------------|------------------|---------------|------------------|
C|---------------|------------------|---------------|------------------|

D|---------------|------------------|---------------|-8-------------------|
A|---------------|--------8---------|---------------|---11-10-8-----------|
F|-----9---10~~~~|-9-10-9---10-9-10-|-----9---10~~~~|-----------10-9-7----|
C|-8-8---8-------|------------------|-7-7---7-------|------------------10-|
G|---------------|------------------|---------------|---------------------|
C|---------------|------------------|---------------|---------------------|

D|---------------|------------------|---------------|------------------|
A|---------------|--------8---------|---------------|--------8---------|
F|-----9---10~~~~|-9-10-9---10-9-10-|-----9---10~~~~|-9-10-9---10-9-10-|
C|-8-8---8-------|------------------|-7-7---7-------|------------------|
G|---------------|------------------|---------------|------------------|
C|---------------|------------------|---------------|------------------|

D|---------------|------------------|---------------|-8-------------------|
A|---------------|--------8---------|---------------|---11-10-8-----------|
F|-----9---10~~~~|-9-10-9---10-9-10-|-----9---10~~~~|-----------10-9-7----|
C|-8-8---8-------|------------------|-7-7---7-------|------------------10-|
G|---------------|------------------|---------------|---------------------|
C|---------------|------------------|---------------|---------------------|

Guitar 2
D|-------------------|----------15----------|-------------------|
A|-------17----18~~~~|-17-18-17----18-17-18-|-------17----18~~~~|
F|-15-15----15-------|----------------------|-14-14----14-------|
C|-------------------|----------------------|-------------------|
G|-------------------|----------------------|-------------------|
C|-------------------|----------------------|-------------------|

D|----------15----------|-------------------|----------15----------|
A|-17-18-17----18-17-18-|-------17----18~~~~|-17-18-17----18-17-18-|
F|----------------------|-15-15----15-------|----------------------|
C|----------------------|-------------------|----------------------|
G|----------------------|-------------------|----------------------|
C|----------------------|-------------------|----------------------|

D|-------------------|-20-18-17----------------|
A|-------17----18~~~~|----------20-18-17-------|
F|-14-14----14-------|-------------------19-17-|
C|-------------------|-------------------------|
G|-------------------|-------------------------|
C|-------------------|-------------------------|

D|---------------|------------------|---------------|------------------|
A|---------------|--------8---------|---------------|--------8---------|
F|-----9---10~~~~|-9-10-9---10-9-10-|-----9---10~~~~|-9-10-9---10-9-10-|
C|-8-8---8-------|------------------|-7-7---7-------|------------------|
G|---------------|------------------|---------------|------------------|
C|---------------|------------------|---------------|------------------|

D|---------------|------------------|---------------|-8-------------------|
A|---------------|--------8---------|---------------|---11-10-8-----------|
F|-----9---10~~~~|-9-10-9---10-9-10-|-----9---10~~~~|-----------10-9-7----|
C|-8-8---8-------|------------------|-7-7---7-------|------------------10-|
G|---------------|------------------|---------------|---------------------|
C|---------------|------------------|---------------|---------------------|

D|----------------|----------------------|----------------|----------------------|
A|----------------|----------13-11-10-11-|----------------|----------13-11-10-11-|
F|----------------|----------------------|----------------|----------------------|
C|-8-8-10-8/12~~~~|-10-12-10-------------|-7-7-10-7/12~~~~|-10-12-10-------------|
G|----------------|----------------------|----------------|----------------------|
C|----------------|----------------------|----------------|----------------------|

D|----------------|----------------------|----------------|----------------------|
A|----------------|----------13-11-10-11-|----------------|----------------------|
F|----------------|----------------------|----------------|-10-9-----------------|
C|-8-8-10-8/12~~~~|-10-12-10-------------|-7-7-10-7/12~~~~|------12-10-8---------|
G|----------------|----------------------|----------------|--------------12-10-8-|
C|----------------|----------------------|----------------|----------------------|

Breakdown

D|-----------------|-----------------|-----------------|---8p5-----------|
A|-6p5---8p5---6p5-|---8p5---6p5-6p5-|-6p5---8p5---6p5-|---------6p5-8p5-|
F|-----5-----5-----|-5-----5---------|-----5-----5-----|-5-----5---------|
C|-----------------|-----------------|-----------------|-----------------|
G|-----------------|-----------------|-----------------|-----------------|
C|-----------------|-----------------|-----------------|-----------------|

D|-----------------|-----------------|-------8p5-------|-----------------|
A|-6p5---8p5---6p5-|---8p5---6p5-6p5-|-6p5---------6p5-|---8p5---6p5-6p5-|
F|-----5-----5-----|-5-----5---------|-----5-----5-----|-5-----5---------|
C|-----------------|-----------------|-----------------|-----------------|
G|-----------------|-----------------|-----------------|-----------------|
C|-----------------|-----------------|-----------------|-----------------|

D|----------------------|-----------------|
A|----------------------|-----------------|
F|----------------------|-----------------|
C|-0-14-15-0-12-14-0-10-|-12-0-8-10-X-----|
G|----------------------|-----------------|
C|----------------------|-----------------|

===============================================================================
Related for Hand Of Blood tab