Song name
# A B C D E F G H I J K L M N O P Q R S T U V W X Y Z

Bullet For My Valentine - Just Another Star tab

Title:Just Another Star

Artist: Bullet For My Valentine

Album: Hand Of Blood

Tuning: CGCFAD

Tabbed By BlackEmissions
Any problems Email Me at black_emissions@hotmail.com

Key
~  Vibrato
b  Bend
p  Pull-Off
h  Hammer On
\  Slide
.  Palm Mute
ps Pickslide

Guitar 1 & 2 (Distortion)

Intro

Guitar 1
    . .    .   .    .    .    .   .   x2  . .    .   .    .    .    .  
D|--------------------------------------|----------------------------------|
A|--------------------------------------|----------------------------------|
F|------10---9---10---12---10---9---10~-|-----10---9---10---12---10---9----|
C|--0-0----0---0----0----0----0---0-----|-0-0----0---0----0----0----0---10~|
G|--------------------------------------|----------------------------------|
C|--------------------------------------|----------------------------------|

Guitar 2
                                      x2
D|--------------------------------------|----------------------------------|
A|--------------------------------------|----------------------------------|
F|--------------------------------------|----------------------------------|
C|-0------------------------------------|-10-------------------------------|
G|-0------------------------------------|-10-------------------------------|
C|-0------------------------------------|-10-------------------------------|

Guitar 1
   . .    .   .
D|-----------------------------|
A|--------------------17-------|
F|-----10---9---10----19b21----|
C|-0-0----0---0----------------|
G|-----------------------------|
C|-----------------------------|

Guitar 2

D|-----------------------------|
A|-----------------------------|
F|-----------------------------|
C|-8-------------------3-------|
G|-8-------------------3-------|
C|-8-------------------3-------|


Verse 1

Guitar 1
    . .    .   .    .    .    .   .   x2  . .    .   .    .    .    .  
D|--------------------------------------|----------------------------------|
A|--------------------------------------|----------------------------------|
F|------10---9---10---12---10---9---10~-|-----10---9---10---12---10---9----|
C|--0-0----0---0----0----0----0---0-----|-0-0----0---0----0----0----0---10~|
G|--------------------------------------|----------------------------------|
C|--------------------------------------|----------------------------------|

Guitar 2
                                      x2
D|--------------------------------------|----------------------------------|
A|--------------------------------------|----------------------------------|
F|--------------------------------------|----------------------------------|
C|-0------------------------------------|-10-------------------------------|
G|-0------------------------------------|-10-------------------------------|
C|-0------------------------------------|-10-------------------------------|

Guitar 1
   . .    .   .
D|-----------------------------|
A|--------------------17-------|
F|-----10---9---10----19b21----|
C|-0-0----0---0----------------|
G|-----------------------------|
C|-----------------------------|

Guitar 2

D|-----------------------------|
A|-----------------------------|
F|-----------------------------|
C|-8-------------------3-------|
G|-8-------------------3-------|
C|-8-------------------3-------|

Bridge (Jump,Jump,Jump,Jump)

Guitar 1&2
   . .    . .    . .    . .           x4
D|--------------------------------------|
A|--------------------------------------|
F|-----10------9-----12-----9-----------|
C|-----10------9-----12-----9-----------|
G|-----8-------7-----10-----7-----------|
C|-0-0----0-0----0-0----0-0-------------|

Pre-Chorus 

Guitar 1: plays 1st time
Guitar 2: plays 2nd time
     . .   . .   . .   . .   .       . .   . . 
D|-------------------------------------------------------------------------|
A|-------------------------------------------------------------------------|
F|-------------------------------------------------------------------------|
C|-1-0-0-1-0-0-1-0-0-1-0-0-1-0-1---1-0-0-1-0-0-1---------------------------|
G|-1-0-0-1-0-0-1-0-0-1-0-0-1-0-1---1-0-0-1-0-0-1---------------------------|
C|-1-0-0-1-0-0-1-0-0-1-0-0-1-0-1---1-0-0-1-0-0-1---------------------------|

Verse 2

Guitar 1
    . .    .   .    .    .    .   .   x2  . .    .   .    .    .    .  
D|--------------------------------------|----------------------------------|
A|--------------------------------------|----------------------------------|
F|------10---9---10---12---10---9---10~-|-----10---9---10---12---10---9----|
C|--0-0----0---0----0----0----0---0-----|-0-0----0---0----0----0----0---10~|
G|--------------------------------------|----------------------------------|
C|--------------------------------------|----------------------------------|

Guitar 2
                                      x2
D|--------------------------------------|----------------------------------|
A|--------------------------------------|----------------------------------|
F|--------------------------------------|----------------------------------|
C|-0------------------------------------|-10-------------------------------|
G|-0------------------------------------|-10-------------------------------|
C|-0------------------------------------|-10-------------------------------|

Guitar 1
   . .    .   .
D|-----------------------------|
A|--------------------17-------|
F|-----10---9---10----19b21----|
C|-0-0----0---0----------------|
G|-----------------------------|
C|-----------------------------|

Guitar 2

D|-----------------------------|
A|-----------------------------|
F|-----------------------------|
C|-8-------------------3-------|
G|-8-------------------3-------|
C|-8-------------------3-------|

Bridge (Jump,Jump,Jump,Jump)

Guitar 1&2
   . .    . .    . .    . .           x4
D|--------------------------------------|
A|--------------------------------------|
F|-----10------9-----12-----9-----------|
C|-----10------9-----12-----9-----------|
G|-----8-------7-----10-----7-----------|
C|-0-0----0-0----0-0----0-0-------------|

Pre-Chorus 

Guitar 1: plays 1st time
Guitar 2: plays 2nd time
     . .   . .   . .   . .   .       . .   . . 
D|-------------------------------------------------------------------------|
A|-------------------------------------------------------------------------|
F|-------------------------------------------------------------------------|
C|-1-0-0-1-0-0-1-0-0-1-0-0-1-0-1---1-0-0-1-0-0-1---------------------------|
G|-1-0-0-1-0-0-1-0-0-1-0-0-1-0-1---1-0-0-1-0-0-1---------------------------|
C|-1-0-0-1-0-0-1-0-0-1-0-0-1-0-1---1-0-0-1-0-0-1---------------------------|

Chorus

Guitar 1
   . . . . . . . . . . . . . . . . .  .  .  .  .  .  .  .  .  .  .  .  .  x2
D|-------------------------------------------------------------------------|
A|-------------------------------------------------------------------------|
F|-------------------------------------------------------------------------|
C|-8-8-8-8-8-8-8-8-8-8-8-8-8-8-8-8-10-10-10-10-10-10-10-10-10-10-10-10-10--|
G|-8-8-8-8-8-8-8-8-8-8-8-8-8-8-8-8-10-10-10-10-10-10-10-10-10-10-10-10-10--|
C|-8-8-8-8-8-8-8-8-8-8-8-8-8-8-8-8-10-10-10-10-10-10-10-10-10-10-10-10-10--|

   .  .  .  . . . . . . . . . . . . . . . .
D|-------------------------------------------------------------------------|
A|-------------------------------------------------------------------------|
F|-------------------------------------------------------------------------|
C|-10-10-10-8-8-8-8-8-8-8-8-8-8-8-8-8-8-8-8-10-10-10-10-10-10--3-----5-----|
G|-10-10-10-8-8-8-8-8-8-8-8-8-8-8-8-8-8-8-8-10-10-10-10-10-10--3-----5-----|
C|-10-10-10-8-8-8-8-8-8-8-8-8-8-8-8-8-8-8-8-10-10-10-10-10-10--3-----5-----|

Guitar 2: half Way through chorus play this (Fast Picking, Maybe Alternate)

D|-----------10-------10------10-------------------------------------------|
A|--/11-11-11----11-11---11-11----11-11------------------------------------|
F|--------------------------------------9p10p9-----------------------------|
C|-------------------------------------------------------------------------|
G|-------------------------------------------------------------------------|
C|-------------------------------------------------------------------------|

D|------------12-------12------12------------------------------------------|
A|--/13-13-13----13-13---13-13----13-13------------------------------------|
F|--------------------------------------9p10p9-----------------------------|
C|-------------------------------------------------------------------------|
G|-------------------------------------------------------------------------|
C|-------------------------------------------------------------------------|
                                                   play this with Guitar 1
D|-----------10-------10------10------------------|
A|--/11-11-11----11-11---11-11----11-11-----------|
F|--------------------------------------9p10p9----|
C|------------------------------------------------|
G|------------------------------------------------|
C|------------------------------------------------|
                           play this with Guitar 1
D|-----------12-------12\----------*-----------*--|
A|-13-13--13----13-13-13\-------------------------|
F|------------------------------------------------|
C|------------------------------------3-----5-----|
G|------------------------------------3-----5-----|
C|------------------------------------3-----5-----|

Interlude: Part 1

Guitar 1:
     . . .     . . .      . . .         x4
D|---------------------------------------|
A|---------------------------------------|
F|-7-------8-5-------10-7-------8-7-5-7--|
C|-7-------8-5-------10-7-------8-7-5-7--|
G|-5-------6-7-------8--5-------6-5-3-5--|
C|---0-0-0-----0-0-0------0-0-0----------|

Guitar 2: Need help for Lead with Flange!!!

Interlude Part 2

Guitar 1:
   Use Delay here  . . . . . . . . . . . . . . . . . 
D|------*-*------------------------------------------|
A|---------------------------------------------------|
F|-8-----8---------8-8-8-8-8-8-8-8-8-8-8-8-8-8-8-----|
C|-8-----8---------8-8-8-8-8-8-8-8-8-8-8-8-8-8-8-----|
G|-6-----6---------6-6-6-6-6-6-6-6-6-6-6-6-6-6-6-0---|
C|-------------------------------------------------8-|

D|-------------------------------------------------------------------------|
A|-------------------------------------------------------------------------|
F|-8-8-8-8-8-8-8-8-8-8-8---------------------------------------------------|
C|-8-8-8-8-8-8-8-8-8-8-8----3----5-----------------------------------------|
G|-6-6-6-6-6-6-6-6-6-6-6----3----5-----------------------------------------|
C|--------------------------3----5-----------------------------------------|

Chorus x2

Interlude: Part 1

Guitar 1:
                  . . .     . . .      . . .         x4
D|---------|------------------------------------------|
A|---------|------------------------------------------|
F|---------|----7-------8-5-------10-7-------8-7-5-7--|
C|---------|----7-------8-5-------10-7-------8-7-5-7--|
G|---------|----5-------6-7-------8--5-------6-5-3-5--|
C|-*-Ps-*--|------0-0-0-----0-0-0------0-0-0----------|

Outro:

Guitar 1: Sychronized with Guitar 2
                                                            . .  . .  . .
D|-------------------------------------------------------------------------|
A|-------------------------------------------------------------------------|
F|---10-10-10-9-9-9-10-10-10-12-12-12-10-10-10-9-9-9-10\-------------------|
C|----------------------------------------------------------0-0--0-0--0-0--|
G|----------------------------------------------------------0-0--0-0--0-0--|
C|----------------------------------------------------------0-0--0-0--0-0--|

Guitar 2: Sychronized with Guitar 1

D|-------------------------------------------------------------------------|
A|-------------------------------------------------------------------------|
F|-------------------------------------------------------------------------|
C|----------------------------------------------------------0-0--0-0--0-0--|
G|---8-8-8-7-7-7-8-8-8-10-10-10-8-8-8-7-7-7-8\--------------0-0--0-0--0-0--|
C|----------------------------------------------------------0-0--0-0--0-0--|


              !                                       !           
    __        R       __                    __        R       __
   /  \       !      /  \                  /  \       !      /  \
  |    |      O     |    |      TO        |    |      O     |    |
  |    |      !     |    |                |    |      !     |    |
  |    |      C     |    |      MUCH      |    |      C     |    |
  |    |      !     |    |                |    |      !     |    |
  |    |      K     |    |    !!ROCK!!    |    |      K     |    |
  |    |  ___  ___  |    |                |    |  ___  ___  |    |        
  |    | |   ||   | |    |      FOR       |    | |   ||   | |    |
  |    | |   ------ |    |                |    | ------   | |    |
  |    | |  / __  / |    |      ONE       |    | \  __ \  | |    |
  |    | | / / / /| |    |                |    | |\ \ \ \ | |    |
  |    | |/ /_/ /|| |    |    !!HAND!!    |    | ||\ \_\ \| |    |
  |    |-/     / ||-|    |                |    |-|| \     \-|    |
  |    |/     /|_|| |    |                |    | ||_|\     \|    |
  |    /     /|___|      |                |      |___|\     \    |
  |         /            |                |            \         |
   \       /            /                  \            \       /
    \                  /                    \                  /
     \                /                      \                /
Tap to rate this tab
# A B C D E F G H I J K L M N O P Q R S T U V W X Y Z