Song name
# A B C D E F G H I J K L M N O P Q R S T U V W X Y Z

Bullet For My Valentine - Suffocating Under Words Of Sorrow tab

-------------------------------------------------------------------------------                
Suffocating Under Words Of Sorrow - Bullet for my Valentine
-------------------------------------------------------------------------------
Tabbed by: bfmvfan123 
Tuning: Dropped C ( C.G.C.F.A.D )

Intro
D|---------------------------------------------------------------------------|
A|---------------------------------------------------------------------------|
F|---------------------------------------------------------------------------|
C|------10---9-----5---7---12---10---9-10------------------------------------|
G|--0-0----0---0-0---0---0----0----0------0-0-0-0-0-0------------------------|
C|---------------------------------------------------------------------------|
    X X    X   X X   X   X    X    X      X X X X X X


D|---------------------------------------------------------------------------|
A|---------------------------------------------------------------------------|
F|--9h10p9\7h9p7\5h7p5\4-----------------------------------------------------|
C|---------------------------------------------------------------------------|
G|---------------------------------------------------------------------------|
C|---------------------------------------------------------------------------|



D|---------------------------------------------------------------------------|
A|---------------------------------------------------------------------------|
F|---------------------------------------------------------------------------|
C|------10---9-----5---7---12---10---9-10------------------------------------|
G|--0-0----0---0-0---0---0----0----0------0-0-0-0-0-0------------------------|
C|---------------------------------------------------------------------------|
    X X    X   X X   X   X    X    X      X X X X X X



D|---------------------------------------------------------------------------|
A|---------------------------------------------------------------------------|
F|--9-10-7-9-5-7-4-----------------------------------------------------------|
C|---------------------------------------------------------------------------|
G|---------------------------------------------------------------------------|
C|---------------------------------------------------------------------------|
    X X  X X X X X



D|---------------------------------------------------------------------------|
A|---------------------------------------------------------------------------|
F|---------------------------------------------------------------------------|
C|------10---9-----5---7---12---10---9-10------------------------------------|
G|--0-0----0---0-0---0---0----0----0------0-0-0-0-0-0------------------------|
C|---------------------------------------------------------------------------|
    X X    X   X X   X   X    X    X      X X X X X X



D|---------------------------------------------------------------------------|
A|---------------------------------------------------------------------------|
F|--9h10p9\7h9p7\5h7p5\4-----------------------------------------------------|
C|---------------------------------------------------------------------------|
G|---------------------------------------------------------------------------|
C|---------------------------------------------------------------------------|



D|---------------------------------------------------------------------------|
A|---------------------------------------------------------------------------|
F|---------------------------------------------------------------------------|
C|------10---9-----5---7---12---10---9-10------------------------------------|
G|--0-0----0---0-0---0---0----0----0------0-0-0-0-0-0------------------------|
C|---------------------------------------------------------------------------|
    X X    X   X X   X   X    X    X      X X X X X X



D|---------------------------------------------------------------------------|
A|---------------------------------------------------------------------------|
F|--9-10-7-9-5-7-4-----------------------------------------------------------|
C|---------------------------------------------------------------------------|
G|---------------------------------------------------------------------------|
C|---------------------------------------------------------------------------|
    X X  X X X X X



Start of the chorus, but then it goes back to the intro
D|---------------------------------------------------------------------------|
A|------6-6-5-5-6-6-6--------------------------------------------------------|
F|------5-5-5-5-5-5-5--------------------------------------------------------|
C|--3-3-3-3-3-3-3-3-3-7------------------------------------------------------|
G|--3-3-3-3-3-3-3-3-3-7------------------------------------------------------|
C|--3-3-3-3-3-3-3-3-3-7------------------------------------------------------|
     X X X X X X



D|---------------------------------------------------------------------------|
A|---------------------------------------------------------------------------|
F|---------------------------------------------------------------------------|
C|------10---9-----5---7---12---10---9-10------------------------------------|
G|----0----0---0-0---0---0----0----0------0-0-0-0-0-0------------------------|
C|---------------------------------------------------------------------------|
      X    X   X X   X   X    X    X      X X X X X X



D|---------------------------------------------------------------------------|
A|---------------------------------------------------------------------------|
F|--9h10p9\7h9p7\5h7p5\4-----------------------------------------------------|
C|---------------------------------------------------------------------------|
G|---------------------------------------------------------------------------|
C|---------------------------------------------------------------------------|




D|---------------------------------------------------------------------------|
A|---------------------------------------------------------------------------|
F|---------------------------------------------------------------------------|
C|------10---9-----5---7---12---10---9-10------------------------------------|
G|--0-0----0---0-0---0---0----0----0------0-0-0-0-0-0------------------------|
C|---------------------------------------------------------------------------|
    X X    X   X X   X   X    X    X      X X X X X X



D|---------------------------------------------------------------------------|
A|---------------------------------------------------------------------------|
F|--9-10-7-9-5-7-4-----------------------------------------------------------|
C|---------------------------------------------------------------------------|
G|---------------------------------------------------------------------------|
C|---------------------------------------------------------------------------|
    X X  X X X X X



D|---------------------------------------------------------------------------|
A|---------------------------------------------------------------------------|
F|---------------------------------------------------------------------------|
C|------10---9-----5---7---12---10---9-10------------------------------------|
G|--0-0----0---0-0---0---0----0----0------0-0-0-0-0-0------------------------|
C|---------------------------------------------------------------------------|
    X X    X   X X   X   X    X    X      X X X X X X



D|---------------------------------------------------------------------------|
A|---------------------------------------------------------------------------|
F|--9h10p9\7h9p7\5h7p5\4-----------------------------------------------------|
C|---------------------------------------------------------------------------|
G|---------------------------------------------------------------------------|
C|---------------------------------------------------------------------------|



D|---------------------------------------------------------------------------|
A|---------------------------------------------------------------------------|
F|---------------------------------------------------------------------------|
C|------10---9-----5---7---12---10---9-10------------------------------------|
G|--0-0----0---0-0---0---0----0----0------0-0-0-0-0-0------------------------|
C|---------------------------------------------------------------------------|
    X X    X   X X   X   X    X    X      X X X X X X



D|---------------------------------------------------------------------------|
A|---------------------------------------------------------------------------|
F|--9-10-7-9-5-7-4-----------------------------------------------------------|
C|---------------------------------------------------------------------------|
G|---------------------------------------------------------------------------|
C|---------------------------------------------------------------------------|
    X X  X X X X X



Chorus
D|---------------------------------------------------------------------------|
A|------6-6-5-5-6-6-6--------------------------------------------------------|
F|------5-5-5-5-5-5-5------7p0-9------7p0-9----------------------------------|
C|--3-3-3-3-3-3-3-3-3-7--7-------7--7----------------------------------------|
G|--3-3-3-3-3-3-3-3-3-7--7-------7--7----------------------------------------|
C|--3-3-3-3-3-3-3-3-3-7--7-------7--7----------------------------------------|
     X X X X X X



D|---------------------------------------------------------------------------|
A|------6-6-5-5-6-6-6--------------------------------------------------------|
F|------5-5-5-5-5-5-5------7p0-9------7p0-9-7-5------------------------------|
C|--3-3-3-3-3-3-3-3-3-7--7-------7--7----------------------------------------|
G|--3-3-3-3-3-3-3-3-3-7--7-------7--7----------------------------------------|
C|--3-3-3-3-3-3-3-3-3-7--7-------7--7----------------------------------------|
     X X X X X X                          X X X



D|---------------------------------------------------------------------------|
A|------6-6-5-5-6-6-6--------------------------------------------------------|
F|------5-5-5-5-5-5-5------7p0-9------7---9-7-5------------------------------|
C|--3-3-3-3-3-3-3-3-3-7--7-------7--7----------------------------------------|
G|--3-3-3-3-3-3-3-3-3-7--7-------7--7----------------------------------------|
C|--3-3-3-3-3-3-3-3-3-7--7-------7--7----------------------------------------|
     X X X X X X                      +   X X X



D|---------------------------------------------------------------------------|
A|------6-6-5-5-6-6-6--------------------------------------------------------|
F|------5-5-5-5-5-5-5------7p0-9------7p0-9-7-5------------------------------|
C|--3-3-3-3-3-3-3-3-3-7--7-------7--7----------------------------------------|
G|--3-3-3-3-3-3-3-3-3-7--7-------7--7----------------------------------------|
C|--3-3-3-3-3-3-3-3-3-7--7-------7--7----------------------------------------|
     X X X X X X                          X X X



Intro repeated
D|---------------------------------------------------------------------------|
A|---------------------------------------------------------------------------|
F|---------------------------------------------------------------------------|
C|------10---9-----5---7---12---10---9-10------------------------------------|
G|--0-0----0---0-0---0---0----0----0------0-0-0-0-0-0------------------------|
C|---------------------------------------------------------------------------|
    X X    X   X X   X   X    X    X      X X X X X X


D|---------------------------------------------------------------------------|
A|---------------------------------------------------------------------------|
F|--9h10p9\7h9p7\5h7p5\4-----------------------------------------------------|
C|---------------------------------------------------------------------------|
G|---------------------------------------------------------------------------|
C|---------------------------------------------------------------------------|



D|---------------------------------------------------------------------------|
A|---------------------------------------------------------------------------|
F|---------------------------------------------------------------------------|
C|------10---9-----5---7---12---10---9-10------------------------------------|
G|--0-0----0---0-0---0---0----0----0------0-0-0-0-0-0------------------------|
C|---------------------------------------------------------------------------|
    X X    X   X X   X   X    X    X      X X X X X X



D|---------------------------------------------------------------------------|
A|---------------------------------------------------------------------------|
F|--9-10-7-9-5-7-4-----------------------------------------------------------|
C|---------------------------------------------------------------------------|
G|---------------------------------------------------------------------------|
C|---------------------------------------------------------------------------|
    X X  X X X X X



D|---------------------------------------------------------------------------|
A|---------------------------------------------------------------------------|
F|---------------------------------------------------------------------------|
C|------10---9-----5---7---12---10---9-10------------------------------------|
G|--0-0----0---0-0---0---0----0----0------0-0-0-0-0-0------------------------|
C|---------------------------------------------------------------------------|
    X X    X   X X   X   X    X    X      X X X X X X



D|---------------------------------------------------------------------------|
A|---------------------------------------------------------------------------|
F|--9h10p9\7h9p7\5h7p5\4-----------------------------------------------------|
C|---------------------------------------------------------------------------|
G|---------------------------------------------------------------------------|
C|---------------------------------------------------------------------------|



D|---------------------------------------------------------------------------|
A|---------------------------------------------------------------------------|
F|---------------------------------------------------------------------------|
C|------10---9-----5---7---12---10---9-10------------------------------------|
G|--0-0----0---0-0---0---0----0----0------0-0-0-0-0-0------------------------|
C|---------------------------------------------------------------------------|
    X X    X   X X   X   X    X    X      X X X X X X



D|---------------------------------------------------------------------------|
A|---------------------------------------------------------------------------|
F|--9-10-7-9-5-7-4-----------------------------------------------------------|
C|---------------------------------------------------------------------------|
G|---------------------------------------------------------------------------|
C|---------------------------------------------------------------------------|
    X X  X X X X X



Chorus
D|---------------------------------------------------------------------------|
A|------6-6-5-5-6-6-6--------------------------------------------------------|
F|------5-5-5-5-5-5-5------7p0-9------7p0-9----------------------------------|
C|--3-3-3-3-3-3-3-3-3-7--7-------7--7----------------------------------------|
G|--3-3-3-3-3-3-3-3-3-7--7-------7--7----------------------------------------|
C|--3-3-3-3-3-3-3-3-3-7--7-------7--7----------------------------------------|
     X X X X X X



D|---------------------------------------------------------------------------|
A|------6-6-5-5-6-6-6--------------------------------------------------------|
F|------5-5-5-5-5-5-5------7p0-9------7p0-9-7-5------------------------------|
C|--3-3-3-3-3-3-3-3-3-7--7-------7--7----------------------------------------|
G|--3-3-3-3-3-3-3-3-3-7--7-------7--7----------------------------------------|
C|--3-3-3-3-3-3-3-3-3-7--7-------7--7----------------------------------------|
     X X X X X X                          X X X



D|---------------------------------------------------------------------------|
A|------6-6-5-5-6-6-6--------------------------------------------------------|
F|------5-5-5-5-5-5-5------7p0-9------7---9-7-5------------------------------|
C|--3-3-3-3-3-3-3-3-3-7--7-------7--7----------------------------------------|
G|--3-3-3-3-3-3-3-3-3-7--7-------7--7----------------------------------------|
C|--3-3-3-3-3-3-3-3-3-7--7-------7--7----------------------------------------|
     X X X X X X                      +   X X X



D|---------------------------------------------------------------------------|
A|------6-6-5-5-6-6-6--------------------------------------------------------|
F|------5-5-5-5-5-5-5------7p0-9------7p0-9-7-5------------------------------|
C|--3-3-3-3-3-3-3-3-3-7--7-------7--7----------------------------------------|
G|--3-3-3-3-3-3-3-3-3-7--7-------7--7----------------------------------------|
C|--3-3-3-3-3-3-3-3-3-7--7-------7--7----------------------------------------|
     X X X X X X                          X X X



Solo
D|---------------------------------------------------------------------------|
A|---------------------------------------------------------------------------|
F|--/14~-----14-16-17-16-14-------------14-16-16~~~------------14-16-17-16---|
C|--------14----------------15-14~---14-------------14-15---14---------------|
G|---------------------------------------------------------------------------|
C|---------------------------------------------------------------------------|



D|---------------------------------------------------------------------------|
A|---------------------------------------------------------------------------|
F|--19-17-17-19-17-16h17p16---------7t9---7\-2-4-5-7-9-10-9-7-5h7p5----------|
C|---------------------------------------------------------------------------|
G|---------------------------------------------------------------------------|
C|---------------------------------------------------------------------------|
             On the trill, bfmv use a wah pedal.



Interlude/breakdown section
D|---------------------------------------------------------------------------|
A|---------------------------------------------------------------------------|
F|---------------------------------------------------------------------------|
C|------10---10p9------12---12p9------9h10-----------------------------------|
G|--0-0----0-------0-0----0-------0-0----------------------------------------|
C|---------------------------------------------------------------------------|
    X X    X     X X X    X     X X X     X


D|---------------------------------------------------------------------------|
A|---------------------------------------------------------------------------|
F|---------------------------------------------------------------------------|
C|------10---10p9------12---12p9------9h10-----------------------------------|
G|--0-0----0-------0-0----0-------0-0----------------------------------------|
C|---------------------------------------------------------------------------|
    X X    X     X X X    X     X X X     X


D|---------------------------------------------------------------------------|
A|---------------------------------------------------------------------------|
F|---------------------------------------------------------------------------|
C|------10---10p9------12---12p9------9h10-----------------------------------|
G|--8-8----8-------8-8----8-------8-8----------------------------------------|
C|---------------------------------------------------------------------------|
    X X    X     X X X    X     X X X     X


D|---------------------------------------------------------------------------|
A|---------------------------------------------------------------------------|
F|---------------------------------------------------------------------------|
C|--------10----10p9--------12----12p9--------9h10---------------------------|
G|--10-10----10-------10-10----10-------10-10--------------------------------|
C|---------------------------------------------------------------------------|
    X  X     X      X X  X     X      X X  X      X


D|---------------------------------------------------------------------------|
A|---------------------------------------------------------------------------|
F|---------------------------------------------------------------------------|
C|------10---10p9------12---12p9------9h10-----------------------------------|
G|--0-0----0-------0-0----0-------0-0----------------------------------------|
C|---------------------------------------------------------------------------|
    X X    X     X X X    X     X X X     X


D|---------------------------------------------------------------------------|
A|---------------------------------------------------------------------------|
F|---------------------------------------------------------------------------|
C|------10---10p9------12---12p9------9h10-----------------------------------|
G|--0-0----0-------0-0----0-------0-0----------------------------------------|
C|---------------------------------------------------------------------------|
    X X    X     X X X    X     X X X     X


D|---------------------------------------------------------------------------|
A|---------------------------------------------------------------------------|
F|---------------------------------------------------------------------------|
C|------10---10p9------12---12p9------9h10-----------------------------------|
G|--8-8----8-------8-8----8-------8-8----------------------------------------|
C|---------------------------------------------------------------------------|
    X X    X     X X X    X     X X X     X


D|---------------------------------------------------------------------------|
A|---------------------------------------------------------------------------|
F|---------------------------------------------------------------------------|
C|--------10----10p9--------/12~-10~-----------------------------------------|
G|--10-10----10-------10-10--------------------------------------------------|
C|---------------------------------------------------------------------------|
    X  X     X      X X  X     


D|---------------------------------------------------------------------------|
A|---------------------------------------------------------------------------|
F|---------------------------------------------------------------------------|
C|------10---10p9------12---12p9------9h10-----------------------------------|
G|--0-0----0-------0-0----0-------0-0----------------------------------------|
C|---------------------------------------------------------------------------|
    X X    X     X X X    X     X X X     X


D|---------------------------------------------------------------------------|
A|---------------------------------------------------------------------------|
F|---------------------------------------------------------------------------|
C|------10---10p9------12---12p9------9h10-----------------------------------|
G|--0-0----0-------0-0----0-------0-0----------------------------------------|
C|---------------------------------------------------------------------------|
    X X    X     X X X    X     X X X     X


D|---------------------------------------------------------------------------|
A|---------------------------------------------------------------------------|
F|---------------------------------------------------------------------------|
C|------10---10p9------12---12p9------9h10-----------------------------------|
G|--8-8----8-------8-8----8-------8-8----------------------------------------|
C|---------------------------------------------------------------------------|
    X X    X     X X X    X     X X X     X


D|---------------------------------------------------------------------------|
A|---------------------------------------------------------------------------|
F|---------------------------------------------------------------------------|
C|--------10----10p9--------12----12p9--------9h10---------------------------|
G|--10-10----10-------10-10----10-------10-10--------------------------------|
C|---------------------------------------------------------------------------|
    X  X     X      X X  X     X      X X  X      X


D|---------------------------------------------------------------------------|
A|---------------------------------------------------------------------------|
F|---------------------------------------------------------------------------|
C|------10---10p9------12---12p9------9h10-----------------------------------|
G|--0-0----0-------0-0----0-------0-0----------------------------------------|
C|---------------------------------------------------------------------------|
    X X    X     X X X    X     X X X     X


D|---------------------------------------------------------------------------|
A|---------------------------------------------------------------------------|
F|---------------------------------------------------------------------------|
C|------10---10p9------12---12p9------9h10-----------------------------------|
G|--0-0----0-------0-0----0-------0-0----------------------------------------|
C|---------------------------------------------------------------------------|
    X X    X     X X X    X     X X X     X


D|---------------------------------------------------------------------------|
A|---------------------------------------------------------------------------|
F|---------------------------------------------------------------------------|
C|------10---10p9------12---12p9------9h10-----------------------------------|
G|--8-8----8-------8-8----8-------8-8----------------------------------------|
C|---------------------------------------------------------------------------|
    X X    X     X X X    X     X X X     X


D|---------------------------------------------------------------------------|
A|---------------------------------------------------------------------------|
F|---------------------------------------------------------------------------|
C|--------10----10p9--------12----12p9--------9h10---------------------------|
G|--10-10----10-------10-10----10-------10-10--------------------------------|
C|---------------------------------------------------------------------------|
    X  X     X      X X  X     X      X X  X      X


Intro repeated again
D|---------------------------------------------------------------------------|
A|---------------------------------------------------------------------------|
F|---------------------------------------------------------------------------|
C|------10---9-----5---7---12---10---9-10------------------------------------|
G|--0-0----0---0-0---0---0----0----0------0-0-0-0-0-0------------------------|
C|---------------------------------------------------------------------------|
    X X    X   X X   X   X    X    X      X X X X X X


D|---------------------------------------------------------------------------|
A|---------------------------------------------------------------------------|
F|--9h10p9\7h9p7\5h7p5\4-----------------------------------------------------|
C|---------------------------------------------------------------------------|
G|---------------------------------------------------------------------------|
C|---------------------------------------------------------------------------|



D|---------------------------------------------------------------------------|
A|---------------------------------------------------------------------------|
F|---------------------------------------------------------------------------|
C|------10---9-----5---7---12---10---9-10------------------------------------|
G|--0-0----0---0-0---0---0----0----0------0-0-0-0-0-0------------------------|
C|---------------------------------------------------------------------------|
    X X    X   X X   X   X    X    X      X X X X X X



D|---------------------------------------------------------------------------|
A|---------------------------------------------------------------------------|
F|--9-10-7-9-5-7-4-----------------------------------------------------------|
C|---------------------------------------------------------------------------|
G|---------------------------------------------------------------------------|
C|---------------------------------------------------------------------------|
    X X  X X X X X



D|---------------------------------------------------------------------------|
A|---------------------------------------------------------------------------|
F|---------------------------------------------------------------------------|
C|------10---9-----5---7---12---10---9-10------------------------------------|
G|--0-0----0---0-0---0---0----0----0------0-0-0-0-0-0------------------------|
C|---------------------------------------------------------------------------|
    X X    X   X X   X   X    X    X      X X X X X X



D|---------------------------------------------------------------------------|
A|---------------------------------------------------------------------------|
F|--9h10p9\7h9p7\5h7p5\4-----------------------------------------------------|
C|---------------------------------------------------------------------------|
G|---------------------------------------------------------------------------|
C|---------------------------------------------------------------------------|



D|---------------------------------------------------------------------------|
A|---------------------------------------------------------------------------|
F|---------------------------------------------------------------------------|
C|------10---9-----5---7---12---10---9-10------------------------------------|
G|--0-0----0---0-0---0---0----0----0------0-0-0-0-0-0------------------------|
C|---------------------------------------------------------------------------|
    X X    X   X X   X   X    X    X      X X X X X X


D|---------------------------------------------------------------------------|
A|---------------------------------------------------------------------------|
F|--9-10-7-9-5-7-4-----------------------------------------------------------|
C|---------------------------------------------------------------------------|
G|---------------------------------------------------------------------------|
C|---------------------------------------------------------------------------|
    X X  X X X X X


Chorus
D|---------------------------------------------------------------------------|
A|------6-6-5-5-6-6-6--------------------------------------------------------|
F|------5-5-5-5-5-5-5------7p0-9------7p0-9----------------------------------|
C|--3-3-3-3-3-3-3-3-3-7--7-------7--7----------------------------------------|
G|--3-3-3-3-3-3-3-3-3-7--7-------7--7----------------------------------------|
C|--3-3-3-3-3-3-3-3-3-7--7-------7--7----------------------------------------|
     X X X X X X



D|---------------------------------------------------------------------------|
A|------6-6-5-5-6-6-6--------------------------------------------------------|
F|------5-5-5-5-5-5-5------7p0-9------7p0-9-7-5------------------------------|
C|--3-3-3-3-3-3-3-3-3-7--7-------7--7----------------------------------------|
G|--3-3-3-3-3-3-3-3-3-7--7-------7--7----------------------------------------|
C|--3-3-3-3-3-3-3-3-3-7--7-------7--7----------------------------------------|
     X X X X X X                          X X X



D|---------------------------------------------------------------------------|
A|------6-6-5-5-6-6-6--------------------------------------------------------|
F|------5-5-5-5-5-5-5------7p0-9------7---9-7-5------------------------------|
C|--3-3-3-3-3-3-3-3-3-7--7-------7--7----------------------------------------|
G|--3-3-3-3-3-3-3-3-3-7--7-------7--7----------------------------------------|
C|--3-3-3-3-3-3-3-3-3-7--7-------7--7----------------------------------------|
     X X X X X X                      +   X X X



D|---------------------------------------------------------------------------|
A|------6-6-5-5-6-6-6--------------------------------------------------------|
F|------5-5-5-5-5-5-5------7p0-9------7p0-9------7p0-9------7p0-9-7-5--------|
C|--3-3-3-3-3-3-3-3-3-7--7-------7--7-------7--7-------7--7------------------|
G|--3-3-3-3-3-3-3-3-3-7--7-------7--7-------7--7-------7--7------------------|
C|--3-3-3-3-3-3-3-3-3-7--7-------7--7-------7--7-------7--7------------------|
     X X X X X X                                                X X X


D|---------------------------------------------------------------------------|
A|---------------------------------------------------------------------------|
F|---------------------------------------------------------------------------|
C|------10---9-----5---7---12---10---9-10------------------------------------|
G|--0-0----0---0-0---0---0----0----0------0-0-0-0-0-0------------------------|
C|---------------------------------------------------------------------------|
    X X    X   X X   X   X    X    X      X X X X X X


D|---------------------------------------------------------------------------|
A|---------------------------------------------------------------------------|
F|--9h10p9\7h9p7\5h7p5-4-2---------------------------------------------------|
C|---------------------------------------------------------------------------|
G|---------------------------------------------------------------------------|
C|---------------------------------------------------------------------------|





| t  trill (Trilling is basically hammering on and picking off very quickly.)
| /  slide up
| \  slide down
| h  hammer-on
| p  pull-off
| ~  vibrato
| +  Pinch harmonic
| x  Palm Mute note
===============================================================================
Tap to rate this tab
# A B C D E F G H I J K L M N O P Q R S T U V W X Y Z