Song name
# A B C D E F G H I J K L M N O P Q R S T U V W X Y Z

Bullet For My Valentine - Her Voice Recides tab

D|----------------------------------|-------------------------------|
A|----------------------------------|-------------------------------|
F|----------------------------------|-------------------------------|
C|----------------------------------|-7---5---2---3-0-8-7-8-7-5-7---|
G|-0-0-0-0-0-0-0-0-0-0-0-0-0-0-0-0--|---------------0-8-7-8-5-3-5---|
C|-0-0-0-0-0-0-0-0-0-0-0-0-0-0-0-0--|---0---0---0---0-8-7-8---------|
pm . . . . . . . . . . . . . . . .      .   .   .

D|--------------------------|-------------------------------|
A|--------------------------|-------------------------------|
F|--------------------------|-------------------------------|
C|--------------------------|-7---5---2---3-0-8-7-8-3-2-3---|
G|-0-0-0-0-0-0-0-0-0-0-0-0--|---------------0-8-7-8---------|
C|-0-0-0-0-0-0-0-0-0-0-0-0--|---0---0---0---0-8-7-8---------|
pm . . . . . . . . . . . .      .   .   .

D|--------------------------|----------------------|
A|--------------------------|----------------------|
F|--------------------------|----------------------|
C|--------------------------|-3---2---3--0-8-7-8---|
G|-0-0-0-0-0-0-0-0-0-0-0-0--|------------0-8-7-8---|
C|-0-0-0-0-0-0-0-0-0-0-0-0--|---0---0----0-8-7-8---|
pm . . . . . . . . . . . .      .   .

D|--------------------------|--------------------------------|
A|--------------------------|--------------------------------|
F|--------------------------|--------------------------------|
C|--------------------------|-3---2---3--8~-------10~--------|
G|-0-0-0-0-0-0-0-0-0-0-0-0--|------------8~-------10~--------|
C|-0-0-0-0-0-0-0-0-0-0-0-0--|---0---0----8~-------10~--------|
pm . . . . . . . . . . . .      .   .

pm palm mute
~ let ring

first iŽve make the intro,but iŽll work the whole song!!!
Tap to rate this tab
# A B C D E F G H I J K L M N O P Q R S T U V W X Y Z