Song name
# A B C D E F G H I J K L M N O P Q R S T U V W X Y Z

Bullet For My Valentine - Room 409 tab

Gtr I (C G C F A D) - 'Untitled'
Gtr II (C G C F A D) - 'Untitled'
Gtr III (C G C F A D) - 'Dubbed Over'


 Intro
  Q=190
 4/4
  Gtr I
    PM------|   PM--------------------|
  E E E E E E E E   E E E E S S E S S E
|-----------------|---------------------|
|-----------------|---------------------|
|-----------------|---------------------|
|-----------------|---------------------|
|-8-----------8---|---------------------|
|---0---0---0---0-|---0---0-0-0-0-0-0-0-|
|
| Gtr II
| W                 W
|-----------------|---------------------|
|-----------------|---------------------|
|-----------------|---------------------|
|-----------------|---------------------|
|-----------------|---------------------|
|-----------------|---------------------|


    PM------|   PM--------------------|
  E E E E E E E E   E E E E S S E S S E
|-----------------|----------------------|
|-----------------|----------------------|
|-----------------|----------------------|
|-----------------|----------------------|
|-7-----------7---|----------------------|
|---0---0---0---0-|---0---0-0-0-0-0-0-0--|
|
| W                 W
|-----------------|----------------------|
|-----------------|----------------------|
|-----------------|----------------------|
|-----------------|----------------------|
|-----------------|----------------------|
|-----------------|----------------------|


                                                            /            |
    PM------|   PM--------------------|     PM------|
  E E E E E E E E   E E E E S S E S S E   E E E E E E Q    +H     +Q    +Q
|-----------------|---------------------|----------------|------------------|
|-----------------|---------------------|----------------|------------------|
|-----------------|---------------------|----------------|------------------|
|-----------------|---------------------|----------------|------------------|
|-8-----------8---|---------------------|-7--------------|------------------|
|---0---0---0---0-|---0---0-0-0-0-0-0-0-|---0---0---0-0--|-(0)----(0)---(0)-|
|
| W                 W                     W                 W
|-----------------|---------------------|----------------|------------------|
|-----------------|---------------------|----------------|------------------|
|-----------------|---------------------|----------------|------------------|
|-----------------|---------------------|----------------|------------------|
|-----------------|---------------------|----------------|------------------|
|-----------------|---------------------|----------------|------------------|


  |
    PM------|   PM--------------------|     PM------|   PM--------------|
  E E E E E E E E   E E E E S S E S S E   E E E E E E E E   E E E E E E E E
|-----------------|---------------------|-----------------|-----------------|
|-----------------|---------------------|-----------------|-----------------|
|-----------------|---------------------|-----------------|-----------------|
|-----------------|---------------------|-----------------|-----------------|
|-8-----------8---|---------------------|-7-----------7---|-----------------|
|---0---0---0---0-|---0---0-0-0-0-0-0-0-|---0---0---0---0-|---0---0-0-0-0---|
|
|   PM------|   PM--------------------|     PM------|   PM----------------|
| E E E E E E E E   E E E E S S E S S E   E E E E E E E E   E E E E E E E E
|-----------------|---------------------|-----------------|-----------------|
|-----------------|---------------------|-----------------|-----------------|
|-----------------|---------------------|-----------------|-----------------|
|-7-----------7---|---------------------|-5-----------5---|-----------------|
|-----------------|---------------------|-----------------|-----------------|
|---0---0---0---0-|---0---0-0-0-0-0-0-0-|---0---0---0---0-|---0---0-0-0-0---|


  |
    PM------|   PM--------------------|         ~~           ~~
  E E E E E E E E   E E E E S S E S S E   E E E Q.   E E   E Q.   E E Q
|-----------------|---------------------|----------------|---------------|
|-----------------|---------------------|----------------|---------------|
|-----------------|---------------------|----------------|---------------|
|-----------------|---------------------|----------------|---------------|
|-8-----------8---|---------------------|-7-8-7-8----7-8-|-7-8----8-7-5--|
|---0---0---0---0-|---0---0-0-0-0-0-0-0-|----------------|---------------|
|
|   PM------|   PM--------------------|         ~~           ~~
| E E E E E E E E   E E E E S S E S S E   E E E Q.   E E   E Q.   E E Q
|-----------------|---------------------|----------------|---------------|
|-----------------|---------------------|----------------|---------------|
|-----------------|---------------------|----------------|---------------|
|-7-----------7---|---------------------|-5-7-5-7----5-7-|-5-7----7-5----|
|-----------------|---------------------|----------------|------------8--|
|---0---0---0---0-|---0---0-0-0-0-0-0-0-|----------------|---------------|


    Gtrs I, II
                                      PM--------|
    E E +E  E +E  E E E   +E  E +E  E S S E S S E
||----------------------|-------------------------|
||o---------------------|-------------------------|
||----------------------|-------------------------|
||--7---------------7---|-------------------------|
||o-7-0-(0)-0-(0)-0-7-0-|-(0)-0-(0)-0-0-0-0-0-0-0-|
||--7-0-(0)-0-(0)-0-7-0-|-(0)-0-(0)-0-0-0-0-0-0-0-|


                              PM-----|
  E E +E  E +E  E E E   +E  E E E Q  Q
|---------------------|----------------|
|---------------------|----------------|
|---------------------|----------------|
|-5---------------5---|----------------|
|-5-0-(0)-0-(0)-0-5-0-|-(0)-0-0-0-0--0-|
|-5-0-(0)-0-(0)-0-5-0-|-(0)-0-0-0-0--0-|


  E E +E  E +E  E E E   +E  E +E  E S S E S S E
|---------------------|-------------------------|
|---------------------|-------------------------|
|---------------------|-------------------------|
|-7---------------7---|-------------------------|
|-7-0-(0)-0-(0)-0-7-0-|-(0)-0-(0)-0-0-0-0-0-0-0-|
|-7-0-(0)-0-(0)-0-7-0-|-(0)-0-(0)-0-0-0-0-0-0-0-|


 1.
  TP   TP   TP   TP   TP   TP
  Q.   Q.   Q    Q.   Q.   Q
|--------------|---------------||
|--------------|--------------o||
|--------------|---------------||
|--------------|---------------||
|--------------|--------------o||
|-8----7----5--|-7----5----3---||


  2.
  Q.   Q.   Q    Q.   Q.   Q    Q.   +Q   E Q
|--------------|--------------|----------------|
|--------------|--------------|----------------|
|--------------|--------------|----------------|
|--------------|--------------|----------------|
|-8----7----5--|-7----5----3--|-0----(0)-------|
|-8----7----5--|-7----5----3--|-0----(0)-------|


   Verses 1 & 2
    $
    Gtr I
    PM----|   PM  PM--------|    PM  PM-
    E E E E E E E E   E E E E  E E E E
||------------------|------------------|
||o-----------------|------------------|
||------------------|------------------|
||----------7---5---|----------8---7---|
||o-----------------|------------------|
||--0-0-0-0---0---0-|-0-0-0-0----0---0-|
|
|   Gtr II
|   PM----|   PM  PM--------|    PM  PM-
|   E E E E E E E E   E E E E  E E E E
||------------------|------------------|
||o-----------------|------------------|
||------------------|------------------|
||------------------|------------------|
||o---------8---7---|---------10---8---|
||--0-0-0-0---0---0-|-0-0-0-0----0---0-|


 -------|    PM  PM
  E E E E  E E E E   S S S S S S S S S  S S  S S  S S  S
|------------------|--------------------------------------||
|------------------|-------------------------------------o||
|------------------|--------------------------------------||
|---------10---7---|--------------------------------------||
|------------------|-------------------------------------o||
|-0-0-0-0----0---0-|-7h8p7h8p7h8p7h8-7h10p7h10p7h10p7h10--||
|
|-------|    PM  PM
| E E E E  E E E E   S S S S S S S S S  S S  S S  S S  S
|------------------|--------------------------------------||
|------------------|-------------------------------------o||
|------------------|--------------------------------------||
|----------7-------|--------------------------------------||
|--------------7---|-------------------------------------o||
|-0-0-0-0----0---0-|-7h8p7h8p7h8p7h8-7h10p7h10p7h10p7h10--||


    PM----|            PM----|
    E E E E E +E  Q    E E E E  E  +E  Q
||-------------------|--------------------|
||o------------------|--------------------|
||-------------------|--------------------|
||----------8-(8)S7--|---------10-(10)S7--|
||o---------6-(6)S5--|----------8--(8)S5--|
||--0-0-0-0----------|-0-0-0-0------------|
|
|   PM-------------------------------------
|   E E E E H          E E E E  H
||-------------------|--------------------|
||o------------------|--------------------|
||-------------------|--------------------|
||-------------------|--------------------|
||o-0-0-0-0----------|-0-0-0-0------------|
||--0-0-0-0----------|-0-0-0-0------------|


  PM----|
  E E E E Q   Q    S S S S S S S S S  S S  S S  S S  S
|----------------|--------------------------------------||
|----------------|-------------------------------------o||
|----------------|--------------------------------------||
|---------5--/7--|--------------------------------------||
|---------3--/5--|-------------------------------------o||
|-0-0-0-0--------|-7h8p7h8p7h8p7h8-7h10p7h10p7h10p7h10--||
|
|-------|
| E E E E H        S S S S S S S S S  S S  S S  S S  S
|----------------|--------------------------------------||
|----------------|-------------------------------------o||
|----------------|--------------------------------------||
|----------------|--------------------------------------||
|-0-0-0-0--------|-------------------------------------o||
|-0-0-0-0--------|-7h8p7h8p7h8p7h8-7h10p7h10p7h10p7h10--||


 Pre-Chorus
  |
    PM------|   PM--------------------|     PM------|   PM
  E E E E E E E E   E E E E S S E S S E   E E E E E E E E   E E E E E E E E
|-----------------|---------------------|-----------------|-----------------|
|-----------------|---------------------|-----------------|-----------------|
|-----------------|---------------------|-----------------|-----------------|
|-----------------|---------------------|-----------------|-----------------|
|-8-----------8---|---------------------|-7-----------7---|-----------------|
|---0---0---0---0-|---0---0-0-0-0-0-0-0-|---0---0---0---0-|---0-0-0-0-0-0---|
|
|   PM------|   PM--------------------|     PM------|   PM
| E E E E E E E E   E E E E S S E S S E   E E E E E E E E   E E E E E E E E
|-----------------|---------------------|-----------------|-----------------|
|-----------------|---------------------|-----------------|-----------------|
|-----------------|---------------------|-----------------|-----------------|
|-7-----------7---|---------------------|-5-----------5---|-----------------|
|-----------------|---------------------|-----------------|-----------------|
|---0---0---0---0-|---0---0-0-0-0-0-0-0-|---0---0---0---0-|---0-0-0-0-0-0---|


  |
    PM------|   PM------------------------|    PM   PM      PM
  E E E E E E E E   E E E E S S E S S E   E Q  E Q  E E   E E Q  H
|-----------------|---------------------|---------------|-------------|
|-----------------|---------------------|---------------|-------------|
|-----------------|---------------------|---------------|-------------|
|-----------------|---------------------|---------------|-------------|
|-8-----------8---|---------------------|-8----8----8---|---8---------|
|---0---0---0---0-|---0---0-0-0-0-0-0-0-|-8----8----8---|---8---------|
|
|   PM------|   PM------------------------|    PM   PM      PM
| E E E E E E E E   E E E E S S E S S E   E Q  E Q  E E   E E Q  H
|-----------------|---------------------|---------------|-------------|
|-----------------|---------------------|---------------|-------------|
|-----------------|---------------------|---------------|-------------|
|-7-----------7---|---------------------|---------------|-------------|
|-----------------|---------------------|-8----8----8---|---8---------|
|---0---0---0---0-|---0---0-0-0-0-0-0-0-|-8----8----8---|---8---------|


   Chorus
                                      PM--------|
    E E +E  E +E  E E E   +E  E +E  E S S E S S E
||----------------------|-------------------------|
||o---------------------|-------------------------|
||----------------------|-------------------------|
||--7---------------7---|-------------------------|
||o-7-0-(0)-0-(0)-0-7-0-|-(0)-0-(0)-0-0-0-0-0-0-0-|
||--7-0-(0)-0-(0)-0-7-0-|-(0)-0-(0)-0-0-0-0-0-0-0-|


                              PM-----|
  E E +E  E +E  E E E   +E  E E E Q  Q
|---------------------|----------------|
|---------------------|----------------|
|---------------------|----------------|
|-5---------------5---|----------------|
|-5-0-(0)-0-(0)-0-5-0-|-(0)-0-0-0-0--0-|
|-5-0-(0)-0-(0)-0-5-0-|-(0)-0-0-0-0--0-|


  E E +E  E +E  E E E   +E  E +E  E S S E S S E
|---------------------|-------------------------|
|---------------------|-------------------------|
|---------------------|-------------------------|
|-7---------------7---|-------------------------|
|-7-0-(0)-0-(0)-0-7-0-|-(0)-0-(0)-0-0-0-0-0-0-0-|
|-7-0-(0)-0-(0)-0-7-0-|-(0)-0-(0)-0-0-0-0-0-0-0-|


 1.
  TP   TP   TP   TP   TP   TP
  Q.   Q.   Q    Q.   Q.   Q
|--------------|---------------||
|--------------|--------------o||
|--------------|---------------||
|--------------|---------------||
|--------------|--------------o||
|-8----7----5--|-7----5----3---||


  2.
                                        D.S.
  Q.   Q.   Q    Q.   Q.   Q    Q.   +Q   E Q
|--------------|--------------|----------------|
|--------------|--------------|----------------|
|--------------|--------------|----------------|
|--------------|--------------|----------------|
|-8----7----5--|-7----5----3--|-0----(0)-------|
|-8----7----5--|-7----5----3--|-0----(0)-------|


 Solo
  Gtr I
                 \1/   \1/   \1/  \2
   Q.      +E   +E    +E    +E    E     H        H
|-22------(22)-(22)--(22)--(22)--26--|-26-------26-------|
|------------------------------------|-------------------|
|------------------------------------|-------------------|
|------------------------------------|-------------------|
|------------------------------------|-------------------|
|------------------------------------|-------------------|
|
| Gtr II
|  PM-----|            PM         PM----------|    PM  PM-
|  E  E E   E    E     E     E    E     E E E E  E E E E
|------------------------------------|-------------------|
|------------------------------------|-------------------|
|------------------------------------|-------------------|
|----------------7-----------5-------|-----------8---7---|
|----------------8-----------7-------|----------10---8---|
|--0--0-0---0----------0----------0--|--0-0-0-0----0---0-|


   S  S  S  S  S  S  S  S  S  S  S  S  S  S  S  S    S  S  S  S  S  S  S  S  S  S  S  S  S  S  S  S
|-------------------------------------------------|----------------------15-17-15-13-15-17-15-13-15----|
|-------------------------------------------15----|-15-15-17-18-15-17-18-------------------------------|
|-------------------------14-15-17-14-15-17----17-|----------------------------------------------------|
|----14-15-17-15-14-15-17-------------------------|----------------------------------------------------|
|-17----------------------------------------------|----------------------------------------------------|
|-------------------------------------------------|----------------------------------------------------|
|
|-------------------|            PM          PM
|  E     E     E     E     E     E     E     E       S  S  S  S  S  S  S  S  S  S  S  S  S  S  S  S
|-------------------------------------------------|----------------------------------------------------|
|-------------------------------------------------|----------------------------------------------------|
|-------------------------------------------------|----------------------------------------------------|
|-------------------------10-----------7----------|----------------------------------------------------|
|-------------------------12-----------7----------|----------------------------------------------------|
|--0-----0-----0-----0-----------0-----------0----|--7h=8p=7h=8p=7h=8p=7h=8--7h10p=7h10p=7h10p=7h10----|


  Gtr I
   TP       TP         TP       TP
   H        H          H        H
|-17-------15-------|-18-------17-------|
|-------------------|-------------------|
|-------------------|-------------------|
|-------------------|-------------------|
|-------------------|-------------------|
|-------------------|-------------------|
|
| Gtr II
|  PM----|    PM  PM---------|    PM  PM-
|  E E E E  E E E E    E E E E  E E E E
|-------------------|-------------------|
|-------------------|-------------------|
|-------------------|-------------------|
|-----------7---5---|-----------8---7---|
|-----------8---7---|----------10---8---|
|--0-0-0-0----0---0-|--0-0-0-0----0---0-|
|
| Gtr III
|  TP       TP         TP       TP
|  H        H          H        H
|-13-------12-------|-15-------13-------|
|-------------------|-------------------|
|-------------------|-------------------|
|-------------------|-------------------|
|-------------------|-------------------|
|-------------------|-------------------|


   TP       TP         TP       TP
   H        H          H        H
|-17-------15-------|-------------------|
|-------------------|-17-------18-------|
|-------------------|-------------------|
|-------------------|-------------------|
|-------------------|-------------------|
|-------------------|-------------------|
|
|--------|    PM  PM   TPTPTPTP TPTPTPTP
|  E E E E  E E E E    E E E E  E E E E
|-------------------|-------------------|
|-------------------|-------------------|
|-------------------|-------------------|
|----------10---7---|-------------------|
|----------12---7---|--xSxSxSxS=xSxSxSx-|
|--0-0-0-0----0---0-|--xSxSxSxS=xSxSxSx-|
|
|  TP       TP         TP       TP
|  H        H          H        H
|-13-------12-------|-------------------|
|-------------------|-14-------15-------|
|-------------------|-------------------|
|-------------------|-------------------|
|-------------------|-------------------|
|-------------------|-------------------|


   Bridge
       Gtr I
    ~  PM  PM  PM    PM
    Q  E E E E E E   E E E E E E E E   Q  E E Q  E E   Q  E E Q  E E
||-----------------|-----------------|---------------|-----------------||
||o----------------|-----------------|---------------|----------------o||
||-----------------|-----------------|---------------|-----------------||
||-------7---5-----|---8---7---5-7-5-|-0--0---2--2---|-3--3---5--5-----||
||o--------------8-|-----------------|-0--0---2--2---|-3--3---5--5----o||
||--8--8---8---8---|-8---8---8-------|-0--0---2--2---|-3--3---5--5-----||
|
|      Gtr II
|   ~  PM  PM  PM    PM
|   Q  E E E E E E   E E E E E E E E   Q  E E Q  E E   Q  E E Q  E E
||-----------------|-----------------|---------------|-----------------||
||o----------------|-----------------|---------------|----------------o||
||-----------------|-----------------|---------------|-----------------||
||-----------------|---5-------------|-0--0---2--2---|-3--3---5--5-----||
||o------8---7---5-|-------8---7-8-7-|-0--0---2--2---|-3--3---5--5----o||
||--8--8---8---8---|-8---8---8-------|-0--0---2--2---|-3--3---5--5-----||


    ~M-|
                                  |-3-|
    Q  E E E E E E   E  E E E E E E E E   Q  E E Q  E E
||-----------------|--------------------|---------------|
||o----------------|--------------------|---------------|
||-----------------|--------------------|---------------|
||-------7p0-5p0-3p|=0--8p0-7p0-5h7p5p0-|-0--0---2--2---|
||o----------------|--------------------|-0--0---2--2---|
||--8--8-----------|--------------------|-0--0---2--2---|
|
|   ~M-|
|                                 |-3-|
|   Q  E E E E E E   E  E E E E E E E E   Q  E E Q  E E
||-----------------|--------------------|---------------|
||o----------------|--------------------|---------------|
||-----------------|--------------------|---------------|
||-----------------|--------------------|-0--0---2--2---|
||o------8p0-7p0-5p|=0-10p0-8p0-7h8p7p0-|-0--0---2--2---|
||--8--8-----------|--------------------|-0--0---2--2---|


 1.                 2.
  Q  E E Q  E E     Q  E E E +E  E E   +E  H    Q  E
|----------------||------------------|---------------|
|---------------o||------------------|---------------|
|----------------||------------------|---------------|
|-3--3---5--5----||-3--3---5-(5)-5-5-|-(5)-----------|
|-3--3---5--5---o||-3--3---5-(5)-5-5-|-(5)-----------|
|-3--3---5--5----||-3--3---5-(5)-5-5-|-(5)-----------|
|
| Q  E E Q  E E     Q  E E E +E  E E   +E  H    Q  E
|----------------||------------------|---------------|
|---------------o||------------------|---------------|
|----------------||------------------|---------------|
|-3--3---5--5----||-3--3---5-(5)-5-5-|-(5)-----------|
|-3--3---5--5---o||-3--3---5-(5)-5-5-|-(5)-----------|
|-3--3---5--5----||-3--3---5-(5)-5-5-|-(5)-----------|


 Bridge 2
  Q=95
                                                     ~
  S Q  +S  S Q  +S  +E  +E    +S  +S  S Q  +S   E  E Q
|---------------------------|---------------------------|
|---------------------------|---------------------10-8--|
|---------------------------|---------------------------|
|-8p0--(0)-8p0--(0)-(0)-(0)-|-(0)-(0)-8p0--(0)-/8-------|
|-8p0--(0)-8p0--(0)-(0)-(0)-|-(0)-(0)-8p0--(0)----------|
|-8p0--(0)-8p0--(0)-(0)-(0)-|-(0)-(0)-8p0--(0)----------|
|
|                                                    ~
| S Q  +S  S Q  +S  +E  +E    +S  +S  S Q  +S   E  E Q
|---------------------------|---------------------------|
|---------------------------|---------------------------|
|---------------------------|---------------------10-9--|
|-8p0--(0)-8p0--(0)-(0)-(0)-|-(0)-(0)-8p0--(0)-/8-------|
|-8p0--(0)-8p0--(0)-(0)-(0)-|-(0)-(0)-8p0--(0)----------|
|-8p0--(0)-8p0--(0)-(0)-(0)-|-(0)-(0)-8p0--(0)----------|


                                                      ~~
  S Q  +S  S Q  +S  +E  +E    +S  +S  S Q  +S   E  E  Q
|---------------------------|-----------------------------|
|---------------------------|---------------------10-11---|
|---------------------------|-----------------------------|
|-8p0--(0)-8p0--(0)-(0)-(0)-|-(0)-(0)-8p0--(0)-/8---------|
|-8p0--(0)-8p0--(0)-(0)-(0)-|-(0)-(0)-8p0--(0)------------|
|-8p0--(0)-8p0--(0)-(0)-(0)-|-(0)-(0)-8p0--(0)------------|
|
|                                                     ~~
| S Q  +S  S Q  +S  +E  +E    +S  +S  S Q  +S   E  E  Q
|---------------------------|-----------------------------|
|---------------------------|-----------------------------|
|---------------------------|---------------------10-12---|
|-8p0--(0)-8p0--(0)-(0)-(0)-|-(0)-(0)-8p0--(0)-/8---------|
|-8p0--(0)-8p0--(0)-(0)-(0)-|-(0)-(0)-8p0--(0)------------|
|-8p0--(0)-8p0--(0)-(0)-(0)-|-(0)-(0)-8p0--(0)------------|


                                                   ~~~~
  S Q  +S  S Q  +S  S S S S   S S S Q  +S   E  E   Q
|---------------------------|--------------------------|
|---------------------------|-----------------10-[11]--|
|---------------------------|--------------------------|
|-8-0--(0)-8-0--------------|-----8-0--(0)-/8----------|
|-8-0--(0)-8-0--(0)-0-0-0-0-|-0-0-8-0--(0)-------------|
|-8p0--(0)-8p0--(0)-0-0-0-0-|-0-0-8-0--(0)-------------|
|
|                                                  ~~~~
| S Q  +S  S Q  +S  S S S S   S S S Q  +S   E  E   Q
|---------------------------|--------------------------|
|---------------------------|--------------------------|
|---------------------------|-----------------10-[12]--|
|-8-0--(0)-8-0--------------|-----8-0--(0)-/8----------|
|-8-0--(0)-8-0--(0)-0-0-0-0-|-0-0-8-0--(0)-------------|
|-8p0--(0)-8p0--(0)-0-0-0-0-|-0-0-8-0--(0)-------------|


                                                  ~~
  S Q  +S  S Q  +S  S S S S   S S S Q  +S   E  E  Q
|---------------------------|------------------------|
|---------------------------|-----------------10-11--|
|---------------------------|------------------------|
|-8-0--(0)-8-0--------------|-----8-0--(0)-/8--------|
|-8-0--(0)-8-0--(0)-0-0-0-0-|-0-0-8-0--(0)-----------|
|-8p0--(0)-8p0--(0)-0-0-0-0-|-0-0-8-0--(0)-----------|
|
|                                                 ~~
| S Q  +S  S Q  +S  S S S S   S S S Q  +S   E  E  Q
|---------------------------|------------------------|
|---------------------------|------------------------|
|---------------------------|-----------------10-12--|
|-8-0--(0)-8-0--------------|-----8-0--(0)-/8--------|
|-8-0--(0)-8-0--(0)-0-0-0-0-|-0-0-8-0--(0)-----------|
|-8p0--(0)-8p0--(0)-0-0-0-0-|-0-0-8-0--(0)-----------|


 Pre-Chorus
  Q=190
  |
    PM------|   PM--------------------|     PM------|   PM
  E E E E E E E E   E E E E S S E S S E   E E E E E E E E   E E E E E E E E
|-----------------|---------------------|-----------------|-----------------|
|-----------------|---------------------|-----------------|-----------------|
|-----------------|---------------------|-----------------|-----------------|
|-----------------|---------------------|-----------------|-----------------|
|-8-----------8---|---------------------|-7-----------7---|-----------------|
|---0---0---0---0-|---0---0-0-0-0-0-0-0-|---0---0---0---0-|---0-0-0-0-0-0---|
|
|   PM------|   PM--------------------|     PM------|   PM
| E E E E E E E E   E E E E S S E S S E   E E E E E E E E   E E E E E E E E
|-----------------|---------------------|-----------------|-----------------|
|-----------------|---------------------|-----------------|-----------------|
|-----------------|---------------------|-----------------|-----------------|
|-7-----------7---|---------------------|-5-----------5---|-----------------|
|-----------------|---------------------|-----------------|-----------------|
|---0---0---0---0-|---0---0-0-0-0-0-0-0-|---0---0---0---0-|---0-0-0-0-0-0---|


  |
    PM------|   PM--------------------|         ~~           ~~
  E E E E E E E E   E E E E S S E S S E   E E E Q.   E E   E Q.   E E Q
|-----------------|---------------------|----------------|---------------|
|-----------------|---------------------|----------------|---------------|
|-----------------|---------------------|----------------|---------------|
|-----------------|---------------------|----------------|---------------|
|-8-----------8---|---------------------|-7-8-7-8----7-8-|-7-8----8-7-5--|
|---0---0---0---0-|---0---0-0-0-0-0-0-0-|----------------|---------------|
|
|   PM------|   PM--------------------|         ~~           ~~
| E E E E E E E E   E E E E S S E S S E   E E E Q.   E E   E Q.   E E Q
|-----------------|---------------------|----------------|---------------|
|-----------------|---------------------|----------------|---------------|
|-----------------|---------------------|----------------|---------------|
|-7-----------7---|---------------------|-5-7-5-7----5-7-|-5-7----7-5----|
|-----------------|---------------------|----------------|------------8--|
|---0---0---0---0-|---0---0-0-0-0-0-0-0-|----------------|---------------|


   Chorus
                                      PM--------|
    E E +E  E +E  E E E   +E  E +E  E S S E S S E
||----------------------|-------------------------|
||o---------------------|-------------------------|
||----------------------|-------------------------|
||--7---------------7---|-------------------------|
||o-7-0-(0)-0-(0)-0-7-0-|-(0)-0-(0)-0-0-0-0-0-0-0-|
||--7-0-(0)-0-(0)-0-7-0-|-(0)-0-(0)-0-0-0-0-0-0-0-|


                              PM-----|
  E E +E  E +E  E E E   +E  E E E Q  Q
|---------------------|----------------|
|---------------------|----------------|
|---------------------|----------------|
|-5---------------5---|----------------|
|-5-0-(0)-0-(0)-0-5-0-|-(0)-0-0-0-0--0-|
|-5-0-(0)-0-(0)-0-5-0-|-(0)-0-0-0-0--0-|


  E E +E  E +E  E E E   +E  E +E  E S S E S S E
|---------------------|-------------------------|
|---------------------|-------------------------|
|---------------------|-------------------------|
|-7---------------7---|-------------------------|
|-7-0-(0)-0-(0)-0-7-0-|-(0)-0-(0)-0-0-0-0-0-0-0-|
|-7-0-(0)-0-(0)-0-7-0-|-(0)-0-(0)-0-0-0-0-0-0-0-|


  TP   TP   TP   TP   TP   TP      TP   TP   TP   TP   TP
  Q.   Q.   Q    Q.   Q.   Q       Q.   Q.   Q    Q.   Q.   Q
|--------------|---------------||---------------|-------------|
|--------------|--------------o||---------------|-------------|
|--------------|---------------||---------------|-------------|
|--------------|---------------||---------------|-------------|
|--------------|--------------o||---------------|-------------|
|-8----7----5--|-7----5----3---||-10----8----7--|-8----7----5-|


  Gtr I
  PM----|   PM~    PM----|    PM~
  E E E E E E Q    E E E E  E E Q
|----------------|-----------------|
|----------------|-----------------|
|----------------|-----------------|
|---------7---5--|----------8---7--|
|----------------|-----------------|
|-0-0-0-0---0----|-0-0-0-0----0----|
|
| Gtr II
| PM----|   PM~    PM----|    PM~
| E E E E E E Q    E E E E  E E Q
|----------------|-----------------|
|----------------|-----------------|
|----------------|-----------------|
|----------------|-----------------|
|---------8---7--|---------10---8--|
|-0-0-0-0---0----|-0-0-0-0----0----|


  PM----|    PM~    PM-------------|
  E E E E  E E Q    E E E E E E  E E   E H    Q  E
|-----------------|------------------|-------------|
|-----------------|------------------|-------------|
|-----------------|------------------|-------------|
|---------10---7--|------------------|-0-----------|
|-----------------|-3-1-0-1-8-7-10-7-|-0-----------|
|-0-0-0-0----0----|-3-1-0-1-8-7-10-7-|-0-----------|
|
| PM----|    PM~    PM-------------|
| E E E E  E E Q    E E E E E E  E E   E H    Q  E
|-----------------|------------------|-------------|
|-----------------|------------------|-------------|
|-----------------|------------------|-------------|
|----------7------|------------------|-0-----------|
|--------------7--|-3-1-0-1-8-7-10-7-|-0-----------|
|-0-0-0-0----0----|-3-1-0-1-8-7-10-7-|-0-----------|




--------------------------------------------------------------------------------


Duration Legend
---------------
W - whole; H - half; Q - quarter; E - 8th; S - 16th; T - 32nd; X - 64th; a - acciaccatura
+ - note tied to previous; . - note dotted; .. - note double dotted
Uncapitalized letters represent notes that are staccato (1/2 duration)
Irregular groupings are notated above the duration line
Duration letters will always appear directly above the note/fret number it represents the
duration for.  Duration letters with no fret number below them represent rests.  Multi-
bar rests are notated in the form Wxn, where n is the number of bars to rest for.  Low
melody durations appear below the staff

Tablature Legend
----------------
 h   - hammer-on
 p   - pull-off
 b   - bend
 pb  - pre-bend
 r   - bend release (if no number after the r, then release immediately)
 /\  - slide into or out of (from/to "nowhere")
 s   - legato slide
 S   - shift slide
 - natural harmonic
[n]  - artificial harmonic
n(n) - tapped harmonic
 ~   - vibrato
 tr  - trill
 T   - tap
 TP  - trem. picking
 PM  - palm muting
\n/  - tremolo bar dip; n = amount to dip
 \n  - tremolo bar down
 n/  - tremolo bar up
/n\  - tremolo bar inverted dip
 =   - hold bend; also acts as connecting device for hammers/pulls
 <> - volume swell (louder/softer)
 x   - on rhythm slash represents muted slash
 o   - on rhythm slash represents single note slash

Misc Legend
-----------
 |  - bar
||  - double bar
||o - repeat start
o|| - repeat end
*|  - double bar (ending)
 :  - bar (freetime)
 $  - Segno
 &  - Coda
Tempo markers -  = BPM(8/16=s8/s16), where s8 = swing 8ths, s16 = swing 16ths
Tap to rate this tab
# A B C D E F G H I J K L M N O P Q R S T U V W X Y Z