Song name
# A B C D E F G H I J K L M N O P Q R S T U V W X Y Z

Bullet For My Valentine - Her Voice Resides tab

Her Voice Resides- Bullet for my Valentine

Tabbed by Cory

Hey ummmmm this is my first tab. Im pretty sure its 99% correct. BFMV rock!!! If you 
any suggestions email me at xXwords_of_sorrowXx@yahoo.com. thanks.

pm-palm mute
[]-pinch harmonic
~-vibrato
()-tied note
h-hammer on
p-pull off
/-slide up
\-slide down
t-tap

Drop C

 intro   open c chord 1st time only                       x3
d/------------------------------------------------------------/
a/------------------------------------------------------------/
f/--------------------------2-0-------------------------------/
c/0---------------------------------2-3-----------------------/
g/0-----------------------------------------0-1-0-1--5-3-5----/
c/0-0-0-0-0-0-0-0-0-0-0-0-0-----0-0-----0-0-------------------/
    pm---------------------     ---     ---

d/----------------------------------------------------------/
a/----------------------------------------------------------/
f/------------------------2-0-------------3---(3)-5---(5)---/
c/--------------------------------2-3-----3---(3)-5---(5)---/
g/----------------------------------------1---(1)-3---(3)---/
c/0-0-0-0-0-0-0-0-0-0-0-0-----0-0-----0-0-------------------/
  pm---------------------     ---     ---

 verse
d/---------------------------------------------------/
a/---------------------------------------------------/
f/--------------------------------2-2-0-0-3-0-0------/
c/0----------0-----2-3-2-0---------------------------/
g/0----------0-----------0---------------------------/
c/0-00-0-0-0-0-0-0-------0-00-0-0--------------------/
    pm------   ---         ------                   x2

d/--------------------------------1-1-0-0-3-0-0----/
a/-------------------------------------------------/
f/-------------------------------------------------/
c/0----------0-----2-3-2-0-------------------------/
g/0----------0-----------0-------------------------/
c/0-00-0-0-0-0-0-0-------0-00-0-0------------------/
    pm------   ---         ------
                                   harmony
                                 /5-5-3-3-6-3-3--/
                                 /---------------/
                                 /---------------/
                                 /---------------/
                                 /---------------/
                                 /---------------/

 chorus
d/---------------------------------------------------------------------------------/
a/---------------------------------------------------------------------------------/
f/3-3-5-5-2-2-9-10-3-3-5-5-------------3-3-5-5-2-2-9-10-3-3-5-5--7h8p7h8p7h8p7h8p7-/
c/3-3-5-5-2-2-9-10-3-3-5-5-pickscrape--3-3-5-5-2-2-9-10-3-3-5-5--------------------/
g/1-1-3-3-0-0-7-8--1-1-3-3-pickscrape--1-1-3-3-0-0-7-8--1-1-3-3--------------------/
c/-------------------------pickscrape----------------------------------------------/

 fill
d/-----------------------------------------------------------------/
a/-----------------------------------------------------------------/
f/-------------------------------2-0-------------------------------/
c/---------------------------------------2-3-----------------------/
g/--------0---------[2]~-------------------------0-1-0-1--5-3-5----/
c/0-0-0-0-0-0-0-0-0------0-0-0-0-----0-0-----0-0-------------------/
  pm-----   -------      -------     ---     ---

d/---------------------------------------------------------/
a/---------------------------------------------------------/
f/------------------------2-0------------------------------/
c/--------------------------------2-3----------------------/
g/----------------------------------------0-1-0-1--5-3-5---/
c/0-0-0-0-0-0-0-0-0-0-0-0-----0-0-----0-0------------------/
  pm---------------------     ---     ---

d/--------------------------------------------------------/
a/--------------------------------------------------------/
f/----------------------2-0-------------------------------/
c/-----------------------------2-3------------------------/
g/-------------------------------------0-1-0-1--5-3-[5]---/
c/0-0---0-0---0-0---0-0----0-0-----0-0--------------------/
 pm--------------------    ---     ---

d/--------------------------------------------------------/
a/--------------------------------------------------------/
f/----------------------2-0-------------3---(3)-5---(5)---/
c/------------------------------2-3-----3---(3)-5---(5)---/
g/--------------------------------------1---(1)-3---(3)---/
c/0-0---0-0---0-0---0-0-----0-0-----0-0-------------------/
  pm-------------------     ---     ---

 only play this on first fill
d/-----------------/
a/-----------------/
f/--------0--------/
c/2-0-2-3---3-2-0--/
g/--------------0--/
c/--------------0--/

verse
chorus
fill

 breakdown
d/----------------------------------/
a/----------------------------------/
f/10---10-9-0-12-0-12---12-9-0-10-0-/
c/----------------------------------/ 
g/----------------------------------/  
c/----------------------------------/  

d/----------------------------------/
a/----------------------------------/
f/10---10-9-0-12-0-12---12-9-0-10-0-/
c/----------------------------------/ 
g/----------------------------------/  
c/----------------------------------/  

d/----------------------------------/
a/----------------------------------/
f/-----10-9-0-12-0-12---12-9-0-10-0-/
c/8~--------------------------------/ 
g/----------------------------------/  
c/----------------------------------/

d/----------------------------------/
a/----------------------------------/
f/10---10-9-0-12-0-12---12-9-0-10-0-/
c/----------------------------------/ 
g/----------------------------------/  
c/----------------------------------/  
1st time thorugh use a phaser
then repeat with dist.
  
 interlude
 gtr. 1
d/--------------------------------------------------------------/
a/--------------------------------------------------------------/
f/-----2--------------2--------------2--------------------------/
c/-/5----5-0-3-5--/5----5-0-3-5--/5----5-0-3-5--/8--7-5-7--5----/
g/-----------------------------------------------------------8--/
c/--------------------------------------------------------------/

 gtr.2   this part is played the 1st,3rd,and 4th
d/-----------------------------------------------------------------------/
a/-----------------------------------------------------------------------/
f/----------------------------------------------5-5---7-7----------------/
c/----------------------------------------------5-5---7-7----------------/       x4
g/0-0------------0-0-------------0-0----------0-3-3---5-5----------------/
c/0-0------------0-0-------------0-0----------0--------------------------/
  pm---------------------------------------------------------------------/

 gtr.2(cont.)   this part is played 2nd
d/-------------------------------------------------/
a/-------------------------------------------------/
f/-------------------------------------------------/
c/----------------------------------------------0--/
g/0-0------------0-0-------------0-0----------0-0--/
c/0-0------------0-0-------------0-0----------0-0--/
  pm-----------------------------------------------/            /\hit palm muted
                                                 then lift palm

 solo (padge)
d/-----------------------------------------------------------------------------------/
a/-----------------------------------------------------------------------------------/
f/---------------------------------------------------------------7-8-10/14~-(14)-----/
c/--------------------------------------------------------7-8-10---------------------/
g/7-7-7-7-7-7-7-7-8-8-8-8-8-8-8-8-7-7-7-7-7-7-7-7--7-8-10----------------------------/
c/-----------------------------------------------------------------------------------/
  pm---------------------------------------------------------------------------------/

d/-----------------------------------------------p10h13t17-x4-p8h12t15-x4-p6h10t13-x4-/15-(15)\-/
a/----------------------------------------------------------------------------------------------/
f/14p12p8----------10h12p10h12p10-9h10p9h10p9-7~------------------------------------------------/
c/--------12~-(12)------------------------------------------------------------------------------/
g/----------------------------------------------------------------------------------------------/
c/----------------------------------------------------------------------------------------------/

 solo (matt)
d/-----------------------------------------------t17p13p10h13-x4-t18p13p10h13-x4-t20p13p10h13-x4/
a/---------/11-10-------------------------------------------------------------------------------/
f/-/10-9----------9--10-9---7-10-9-10-12-10-9---------------------------------------------------/
c/-------8----------------7-------------------10------------------------------------------------/
g/----------------------------------------------------------------------------------------------/
c/----------------------------------------------------------------------------------------------/

 harmony
 gtr.1
d/1-1-0-0-3-0-0-/
a/--------------/
f/--------------/
c/--------------/
g/--------------/
c/--------------/

 gtr.2
d/5-5-3-3-6-3-3-/
a/--------------/
f/--------------/
c/--------------/
g/--------------/
c/--------------/

chorus
fill w/ different end

 different end to 3rd fill
d/-----------------------------/
a/-----------------------------/
f/--------5---(5)--------------/
c/2-3-2-3-5---(5)--pickscrape--/
g/0-1-0-1-3---(3)--pickscrape--/
c/-----------------pickscrape--/

breakdown

gtr.2                                                                          x4
d/--------------------------------------------------------------------------/
a/--------------------------------------------------------------------------/
f/--------------------------------------------------------------------------/
c/0-0--0-0--0-0--0-0--------------------------------------0-0-0-8-----(8)---/
g/0-0--0-0--0-0--0-0--------------------------------------0-0-0-8-----(8)---/
c/0-0--0-0--0-0--0-0--------------------------------------0-0-0-8-----(8)---/
  pm------------------------------------------------------------------------/

d/--------------------------/
a/--------------------------/
f/--------------------------/
c/0-0--0-0--0-0--0-0---(0)--/  x3
g/0-0--0-0--0-0--0-0---(0)--/
c/0-0--0-0--0-0--0-0---(0)--/

d/------------------------/
a/------------------------/
f/------------------------/
c/-\-0-0--0-0--0-[3]~-(3)-/
g/-\-0-0--0-0--0----------/
c/-\-0-0--0-0--0----------/
Tap to rate this tab
# A B C D E F G H I J K L M N O P Q R S T U V W X Y Z