Song name
# A B C D E F G H I J K L M N O P Q R S T U V W X Y Z

Bullet For My Valentine - My Fist Your Mouth Her Scars tab

------------------------------------------------------------------------------------------
 Bullet For My Valentine
My Fist, Your Mouth, Her Scars
------------------------------------------------------------------------------------------

Guitar 1--| C-G-C-F-A-D “Matt Tuck”
Guitar 1--| C-G-C-F-A-D “Mike Padget”

| /  slide up
| \  slide down
| t  tapping
| h  hammer-on
| p  pull-off
| v  vibrato
| +  Palm Muting
|<#> Pinch harmonic

Guitar 1: Intro (Play 4x)
D|-----------------------------------------------------|
A|-----------------------------------------------------|
F|-----------------------------------------------------|
C|---------------------------------------7-5-----------|
G|-----8---8--------7---7--------8---7-------8-7-8-5v--|
C|--00---0---0-0000---0---0-0000---0---0---------------|
PM  ++   +   + ++++   +   + ++++   +   + + + + + +

D|-----------------------------------------------------|
A|-----------------------------------------------------|
F|-----------------------------------------------------|
C|---------------------------------------7-5-----------|
G|-----8---8--------7---7--------8---7-------8-7-8-<5>-|
C|--00---0---0-0000---0---0-0000---0---0---------------|
PM  ++   +   + ++++   +   + ++++   +   +

Guitar 2: Intro 1 (Play 1x after Guitar 1 plays intro 1x)
D|-----------------------------------------------------|
A|-----------------------------------------------------|
F|-----------------------------------------------------|
C|--------------------------------------7-5------------|
G|--00---------0000---------0000-------------8-7-8-5v--|
C|--00---------0000---------0000-----------------------|
PM  ++         ++++         ++++       + + + + + +

D|-----------------------------------------------------------|
A|-----------------------------------------------------------|
F|---------------------------------------------5-------------|
C|-----------------------------------------------8-7-5-7-----|
G|-----12---12--------10---10--------14---14-------------<8>-|
C|--00----0----0-0000----0----0-0000----0----0---------------|
PM  ++    +    + ++++    +    + ++++    +    +

Guitar 1: Intro 2 (Play 2x)
D|-----------------------------------------------------------|
A|-----------------------------------------------------------|
F|---------------------------------------------5-------------|
C|-----------------------------------------------8-7-5-7-----|
G|-----12---12--------10---10--------12---12-------------8v--|
C|--00----0----0-0000----0----0-0000----0----0---------------|
PM  ++    +    + ++++    +    + ++++    +    + + + + + +

D|-----------------------------------------------------------|
A|-----------------------------------------------------------|
F|---------------------------------------------5-------------|
C|-----------------------------------------------8-7-5-7-----|
G|-----12---12--------10---10--------14---14-------------<8>-|
C|--00----0----0-0000----0----0-0000----0----0---------------|
PM  ++    +    + ++++    +    + ++++    +    +

Guitar 1 and 2: Verse (Play 2x)
D|-----------------------------------------------|
A|-----------------------------------------------|
F|-----------------------------------------------|
C|-0000-0000-7\5-8-10-8-7-0000-0000-7\5-8-10-8-7-|
G|-0000-0000-5\3-8--8-6-5-0000-0000-5\3-8--8-6-5-|
C|-0000-0000-----8--------0000-0000-----8--------|
PM ++++ ++++     +        ++++ ++++     +

D|--------------------------------------|
A|--------------------------------------|
F|--------------------------------------|
C|-0000-0000-7\5-8-10-8-77-88-55-10-8-7-|
G|-0000-0000-5\3-8--8-6-55-66-33--8-6-5-|
C|-0000-0000-----8----------------------|
PM ++++ ++++     +

Guitar 1: Chorus (Play 2x)
D|----------------------------------------------------------------|
A|----------------------------------------------------------------|
F|----------------------------------------------------------------|
C|----------------------------------------------------------------|
G|----8tp-7tp-8tp-10tp-8tp-7tp-8tp----8tp-7tp-8tp----8tp-10tp-7tp-|
C|-00------------------------------88-------------77--------------|
PM All Notes

Guitar 2: Chorus (Play 2x)
D|---------------------------------------|
A|---------------------------------------|
F|---------------------------------------| 1
C|---------------------------------------|
G|----12tp-10tp-12tp-13tp-12tp-10tp-12tp-|
C|-00--------------------------------=---|
 PM All Notes

D|-------------------------------------|
A|-------------------------------------|
F|-------------------------------------|
C|----12tp-10tp-12tp----12tp-13tp-10tp-|
G|-------------------------------------|
C|-88----------------77----------------|
PM All notes

Guitar 1: Solo (Play 2x)
D|------------------------------|
A|------------------------------|
F|-3----------------------------|
C|-3-Strum Out------------------|
G|-1----------------------------|
C|------------------------------|

D|-----------------------------------------------------------------------|
A|-----------------------------------------------------------------------|
F|-5------------------------7--------------------------------------------|
C|-5-Strum Out--------------7---------3---------------3---------3--------|
G|-3------------------------5-6-5-3-5---6-5-3-6-5-3-5---6-5-3-5---6-5-3--|
C|-----------------------------------------------------------------------|

Now Both Guitars Play:
Intro 2x
Verse 2x
Chorus 1x
Intro 2x

Guitar 2: Solo (Play 1x, Have volume lower than Guitar 2)
D|------------------------------|
A|-5h6t13p5h6t15p5h6t13p5h6t15v-|
F|------------------------------|
C|------------------------------|
G|------------------------------|
C|------------------------------|
                                                   PM   + +  + +  + +
D|-----------------------------------------------------------------------|
A|-5h6t13p5h6t15p5h6t13p5h6t18-t17v let ring-----------10-8----8---------|
F|----------------------------------------------------------10---10-5-7v-|
C|-----------------------------------------------------------------------|
G|-----------------------------------------------------------------------|
C|-----------------------------------------------13\0--------------------|

D|------------------------------|
A|-5h6t13p5h6t15p5h6t17p5h6t20v-|
F|------------------------------|
C|------------------------------|
G|------------------------------|
C|------------------------------|
                                                 PM   + +  + +  + +
D|-----------------------------------------------------------------------|
A|-5h6t13p5h6t15p5h6t13p5h6t18-t17v ------------------10-8----8----------|
F|---------------------------------------------------------10---10-5-7v--|
C|-----------------------------------------------------------------------|
G|-----------------------------------------------------------------------|
C|-----------------------------------------------13/0--------------------|

Now Play:
Chorus 2x
Verse 2x
Chorus 2x
Intro 2x
Tap to rate this tab
# A B C D E F G H I J K L M N O P Q R S T U V W X Y Z