Song name
# A B C D E F G H I J K L M N O P Q R S T U V W X Y Z

Bullet For My Valentine - Tears Dont Fall Acoustic tab

the tuning is suit for a female,
but if you have a low voice then if you can reach it thats awesome:)
i didnt select the tuning because i only self teach.and i dont understand those concepts yet.


intro
----------4------4----4--------4----5--4--0-----|
----2--2-----2-2---2-----2--2-----2-------------|
------------------------------------------------|
------------------------------------------------|
------------------------------------------------|
------------------------------------------------|

------------------------------------------------|
---------5-----5----5---------7----5----4-------|
-----2-2---2-2----2---4--4----------------------|
------------------------------------------------|
------------------------------------------------|
------------------------------------------------|

----------4------4----4--------4----5--4--0-----|
----2--2-----2-2---2-----2--2-----2-------------|
------------------------------------------------|
------------------------------------------------|
------------------------------------------------|
------------------------------------------------|

------------------------------------------------|
---------5-----5----5---------------------------|
-----2-2---2-2----2---4------(after 3 beats)----|
------------------------------------------------|
------------------------------------------------|
------------------------------------------------|


(these three chords are also the chorus)
---0-------------------0--------------------0---|
---0-------------------0--------------------0---|
---2-------------------4---------(x2)-------6---|
---2-------------------4--------------------6---|
---0-------------------2--------------------4---|
---0-------------------0--------------------0---|

verse 1
----0--------0-------0-----------------------------|
----0--------0-------0-----------------------------|
----6--------2-------4-----------------------------|
----6--------2-------4------(repeat 4 times)-------|
----4--------0-------2-----------------------------|
----0--------0-------0-----------------------------|

for chorus repeat the area ontop of the 1st verse 3 times


verse 2 repeat the chords for verse 1

BRIDGE IS NOT INCLUDED IN THIS TAB SORRY BUT
IF YOU WANT JUST  USE THOSE THREE CHORDS TO MAKE AN ACOUSTIC VERSION OF IT.

i havent put a continuation to this song because all the chords at the top are all you 
and youll know how the song goes anyway so thanks

tell me if theres anything wrong and ill correct it

x.
Tap to rate this tab
# A B C D E F G H I J K L M N O P Q R S T U V W X Y Z